Guitar Tabs, Chords and Lyrics
Update 25:10. 13:00. Site is back up running again. Songbooks are recovered. Woring on getting search back up..


So You Know   InMe

 
 E|-------5----------5-----------5----------2-------|
 B|-----3----3----3----3------3-----3----0----0-----|
 G|--4---------4---------4--0----------2---------2--| x3
 D|-------------------------------------------------|
 A|-------------------------------------------------|
 D|-------------------------------------------------|

 


 


 Guitar Two (Optional) [Played twice only, rest for tbe first bar]


 

 
 E|--------16-----------16----------16---------13---|
 B|-----14-----------14----------14---------11------|
 G|-15-----------15----------------------13---------|
 D|---------------------------16--------------------| x2
 A|-------------------------------------------------|
 D|-------------------------------------------------|

 


 


 then


 


 Guitar One


 

 
 E|-------5----------|
 B|----3-------------|
 G|-0----------------|
 D|------------------|
 A|------------------|
 D|------------------|

 


 


 Guitar Two


 

 
 E|------------------|
 B|------------------|
 G|------------------|
 D|-5-------7/9------|
 A|-5-------7/9------|
 D|-5-------7/9------|

 


 


 Verse


 


 Guitar One


 

 
 E|-------5----------5-----------5----------2-------|
 B|-----3----3----3----3------3-----3----0----0-----|
 G|--4---------4---------4--0----------2---------2--| x4
 D|-------------------------------------------------|
 A|-------------------------------------------------|
 D|-------------------------------------------------|

 


 


 Guitar Two (Optional) [Played twice only, rest for tbe first two bars]


 

 
 E|--------16-----------16----------16---------13---|
 B|-----14-----------14----------14---------11------|
 G|-15-----------15----------------------13---------|
 D|---------------------------16--------------------| x2
 A|-------------------------------------------------|
 D|-------------------------------------------------|

 


 


 Chorus


 


 Both Guitars


 

 
 E|----------------------------|--------------------------------|
 B|----------------------------|--------------------------------|
 G|----------------------------|--------------------------------|
 D|-0000-0000-00--5555-5555-55-|-9999-7777-77--555-555-555-0000-|
 A|-0000-0000-00--5555-5555-55-|-9999-7777-77--555-555-555-0000-|
 D|-0000-0000-00--5555-5555-55-|-9999-7777-77--555-555-555-0000-|

 


 PP PP PP


 


 

 
 E|----------------------------|-------------------------|
 B|----------------------------|-------------------------|
 G|----------------------------|-------------------------|
 D|-0000-0000-00--5555-5555-55-|-999-999-777-777-5--5--5-|
 A|-0000-0000-00--5555-5555-55-|-999-999-777-777-5--5--5-|
 D|-0000-0000-00--5555-5555-55-|-999-999-777-777-5--5--5-|

 


 PP PP PP PP


 Verse


 


 Guitar One


 

 
 E|-------5----------5-----------5----------2-------|
 B|-----3----3----3----3------3-----3----0----0-----|
 G|--4---------4---------4--0----------2---------2--| x4
 D|-------------------------------------------------|
 A|-------------------------------------------------|
 D|-------------------------------------------------|

 


 


 Guitar Two (Palm Muted)


 

 
 E|--------------------------------------|
 B|--------------------------------------|
 G|--------------------------------------|
 D|--9999999999999999-7777777777777777---| x4
 A|--------------------------------------|
 D|--------------------------------------|

 


 


 Chorus


 


 Both Guitars


 

 
 E|----------------------------|--------------------------------|
 B|----------------------------|--------------------------------|
 G|----------------------------|--------------------------------|
 D|-0000-0000-00--5555-5555-55-|-9999-7777-77--555-555-555-0000-|
 A|-0000-0000-00--5555-5555-55-|-9999-7777-77--555-555-555-0000-|
 D|-0000-0000-00--5555-5555-55-|-9999-7777-77--555-555-555-0000-|

 


 PP PP PP


 


 

 
 E|----------------------------|-------------------------|
 B|----------------------------|-------------------------|
 G|----------------------------|-------------------------|
 D|-0000-0000-00--5555-5555-55-|-999-999-777-777-5--5--5-|
 A|-0000-0000-00--5555-5555-55-|-999-999-777-777-5--5--5-|
 D|-0000-0000-00--5555-5555-55-|-999-999-777-777-5--5--5-|

 


 PP PP PP PP


 


 Interlude


 


 Guitar One


 

 
 E|-------------------------|---------------|
 B|-------------------------|---------------|
 G|--7p0-6p0-----------7b---|---------------|
 D|----------7p0-7/9-9----9-|-555555-777777-|
 A|-------------------------|-555555-777777-|
 D|-------------------------|-555555-777777-|

 


 


 Guitar Two


 

 
 E|-------------------------|---------------|
 B|-------------------------|---------------|
 G|-------------------------|---------------|
 D|-------------------------|-555555-777777-|
 A|-------------------------|-555555-777777-|
 D|-------------------------|-555555-777777-|

 


 


 Guitar One


 

 
 E|------------------------|---------------|
 B|------------------------|---------------|
 G|--7p0-6p0-----------[9]-|---------------|
 D|----------7p0-7/9-9-----|-555555-777777-|
 A|------------------------|-555555-777777-|
 D|------------------------|-555555-777777-|

 


 


 Guitar Two


 

 
 E|------------------------|---------------|
 B|------------------------|---------------|
 G|------------------------|---------------|
 D|------------------------|-555555-777777-|
 A|------------------------|-555555-777777-|
 D|------------------------|-555555-777777-|

 


 


 Guitar One .


 

 
 E|----------------------------|------------------|
 B|--7p0-----------------------|-10--8------------|
 G|------9p0-----6p0-7p0-7/9-9-|-------10--9----9-|
 D|----------9p0---------------|-------------12---|
 A|----------------------------|------------------|
 D|----------------------------|------------------|

 


 


 Guitar Two


 

 
 E|-------------------------|---------------|
 B|-------------------------|---------------|
 G|--7p0-6p0-----------7b---|---------------|
 D|----------7p0-7/9-9----9-|-555555-777777-|
 A|-------------------------|-555555-777777-|
 D|-------------------------|-555555-777777-|

 


 


 Guitar One


 

 
 E|------------------------------|------------------|----------------|
 B|--7p0-------------------------|-10--8------------|----------------|
 G|------9p0-----6p0-7p0-6p0-[9]-|-------10--9----9-|----------------|
 D|----------9p0-----------------|-------------12---|-9-9-9---11v----|
 A|------------------------------|------------------|----------------|
 D|------------------------------|------------------|----------------|

 


 


 Guitar Two


 

 
 E|-------------------------|---------------|-------------------|
 B|-------------------------|---------------|-------------------|
 G|--7p0-6p0-----------7b---|---------------|-------------------|
 D|----------7p0-7/9-9----9-|-555555-777777-|-5-5-5---7-7-7-----|
 A|-------------------------|-555555-777777-|-5-5-5---7-7-7-----|
 D|-------------------------|-555555-777777-|-5-5-5---7-7-7-----|

 


 


 Chorus


 


 Both Guitars


 

 
 E|----------------------------|--------------------------------|
 B|----------------------------|--------------------------------|
 G|----------------------------|--------------------------------|
 D|-0000-0000-00--5555-5555-55-|-9999-7777-77--555-555-555-0000-|
 A|-0000-0000-00--5555-5555-55-|-9999-7777-77--555-555-555-0000-|
 D|-0000-0000-00--5555-5555-55-|-9999-7777-77--555-555-555-0000-|

 


 PP PP PP


 


 

 
 E|----------------------------|-------------------------|-----------------|
 B|----------------------------|-------------------------|-----------------|
 G|----------------------------|-------------------------|-----------------|
 D|-0000-0000-00--5555-5555-55-|-999-999-777-777-5--5--5-|-7--7--7---------|
 A|-0000-0000-00--5555-5555-55-|-999-999-777-777-5--5--5-|-7--7--7---------|
 D|-0000-0000-00--5555-5555-55-|-999-999-777-777-5--5--5-|-7--7--7---------|

 


 PP PP PP PP


 


 Last Chorus


 


 Guitar One


 

 
 E|-------5----------5-----------5----------2-------|
 B|-----3----3----3----3------3-----3----0----0-----|
 G|--4---------4---------4--0----------2---------2--| x4
 D|-------------------------------------------------|
 A|-------------------------------------------------|
 D|-------------------------------------------------|

 


 


 Guitar Two


 

 
 E|-------------------------------------|-------------------------------------|
 B|-------------------------------------|-------------------------------------|
 G|-------------------------------------|-------------------------------------| x2
 D|-00000000-00000000-55555555-55555555-|-99999999-77777777-555555555555-0000-|
 A|-00000000-00000000-55555555-55555555-|-99999999-77777777-555555555555-0000-|
 D|-00000000-00000000-55555555-55555555-|-99999999-77777777-555555555555-0000-|

 


 


 Interlude


 


 Guitar One


 

 
 E|-------------------------|---------------|
 B|-------------------------|---------------|
 G|--7p0-6p0-----------7b---|---------------|
 D|----------7p0-7/9-9----9-|-555555-777777-|
 A|-------------------------|-555555-777777-|
 D|-------------------------|-555555-777777-|

 


 


 Guitar Two


 

 
 E|-------------------------|---------------|
 B|-------------------------|---------------|
 G|-------------------------|---------------|
 D|-------------------------|-555555-777777-|
 A|-------------------------|-555555-777777-|
 D|-------------------------|-555555-777777-|

 


 


 Guitar One


 

 
 E|------------------------|---------------|
 B|------------------------|---------------|
 G|--7p0-6p0-----------[9]-|---------------|
 D|----------7p0-7/9-9-----|-555555-777777-|
 A|------------------------|-555555-777777-|
 D|------------------------|-555555-777777-|

 


 


 Guitar Two


 

 
 E|------------------------|---------------|
 B|------------------------|---------------|
 G|------------------------|---------------|
 D|------------------------|-555555-777777-|
 A|------------------------|-555555-777777-|
 D|------------------------|-555555-777777-|

 


 


 Guitar One .


 

 
 E|----------------------------|------------------|
 B|--7p0-----------------------|-10--8------------|
 G|------9p0-----6p0-7p0-7/9-9-|-------10--9----9-|
 D|----------9p0---------------|-------------12---|
 A|----------------------------|------------------|
 D|----------------------------|------------------|

 


 


 Guitar Two


 

 
 E|-------------------------|---------------|
 B|-------------------------|---------------|
 G|--7p0-6p0-----------7b---|---------------|
 D|----------7p0-7/9-9----9-|-555555-777777-|
 A|-------------------------|-555555-777777-|
 D|-------------------------|-555555-777777-|

 


 


 Guitar One


 

 
 E|------------------------------|------------------|
 B|--7p0-------------------------|-10--8------------|
 G|------9p0-----6p0-7p0-6p0-[9]-|-------10--9----9-|
 D|----------9p0-----------------|-------------12---|
 A|------------------------------|------------------|
 D|------------------------------|------------------|

 


 


 Guitar Two


 

 
 E|-------------------------|---------------|
 B|-------------------------|---------------|
 G|--7p0-6p0-----------7b---|---------------|
 D|----------7p0-7/9-9----9-|-555555-777777-|
 A|-------------------------|-555555-777777-|
 D|-------------------------|-555555-777777-|

 


 


 Fade Out


 


 Guitar One


 

 
 E|-------5----------5-----------5----------2-------|
 B|-----3----3----3----3------3-----3----0----0-----|
 G|--4---------4---------4--0----------2---------2--|
 D|-------------------------------------------------|
 A|-------------------------------------------------|
 D|-------------------------------------------------|

 


 


 Guitar Two (Optional) [Rest for tbe first bar]


 

 
 E|--------16-----------16----------16---------13---|
 B|-----14-----------14----------14---------11------|
 G|-15-----------15----------------------13---------|
 D|---------------------------16--------------------|
 A|-------------------------------------------------|
 D|-------------------------------------------------|


Important: The song above is NOT stored on the Chordie server. The original song is hosted at www.azchords.com. Chordie works as a search engine and provides on-the-fly formatting. Chordie does not index songs against artists'/composers' will. To remove this song please click here.

This song is displayed as text-only. Transposing and tuning is only available for chordpro-songs.
Rate #2 of 3 versions

Jango Player

Login - add to songbook

SHARE PAGE  




You need to log in to post comments