Guitar Tabs, Chords and Lyrics
Server problems seems to be fixed. Chordie has been experiencing problems with songs disappearing. These issues now seems to be fixed, but still verifying the fix. If you find anything strange, please email admin@chordie.com.


De la guitarra  Intoxicados

Intro: (G-A-C)x2
(G-A-C)x2
 
 E|-------------------------------------------------------||
 B|-------------------------------8------5b---------------||
 G|-4h5h4---4h5h4---4h5h4---7---7----7-5-------5----5-----||
 D|-----------------------5----5-----------------7----(5)-||
 A|-------------------------------------------------------||
 E|-------------------------------------------------------||
 E|---------------------------------------------------8------8---10-8--10-8---8-8-7-5-(3)---||
 B|-------------------------------8------5b------5/10-----5/8--8------8-----8---------------||
 G|-4h5h4---4h5h4---4h5h4---7---5----7-5----7-5---------------------------------------------||
 D|-----------------------5----5------------------------------------------------------------||
 A|-----------------------------------------------------------------------------------------||
 E|-----------------------------------------------------------------------------------------||

riff 1 riff 2 riff 3 riff 4 riff 5
 
 e|--------------|--3-/5--7--5/3--|----------------(0)-|------------------|---------------
 B|--------------|--3/-5-----5/3--|----------------(0)-|------------------|---------------
 G|--------------|----------------|----------------(0)-|------------------|---------------
 D|--------------|----------------|----------------(2)-|-02h4h5-0h2h4h5-0-|----7----------
 A|-------2-3-5--|----------------|--0-3-2---------(2)-|------------------|-5h7---------5-
 E|-0-3-5--------|----------------|--------3-2-(0)-(0)-|------------------|--------5-7-8--
 -------------5-8-10---||
 -------5-7-8----------||
 ----5-7---------------||
 -5-7------------------||
 7---------------------||
 ----------------------||

[G] Solía [A]verla siempre, temp[C]rano en las ma[G]ñanas
G A C G (riff 1)
Tomaba el mismo tren que yo esperaba frente de la estación
G A C G (riff 2)
Es que, en frente habia un negocio que vendía guitarras
G A C G (riff 3)
Me llamaba la atención de la forma que las miraba ah ah
[Em] Uhh U[A]hh
C (riff 3)
Hacia el tren mientras su sueño se alejaba
[Em] Uhh U[A]hh
Las estac[C]iones triste la vieron pasar
G-A-C x2 (intro)
G A C G (riff 2)
Jamas volvi a verla mirando las guitarras
G A C G (riff 3)
Pero tengo la sensación que ahora está tocando alguna canción
[Em] Uhh U[A]hh
C (riff 3)
Hacia el tren mientras su sueño se alejaba
[Em] Uhh U[A]hh
Las estac[C]iones triste la vieron pasar[D]
[G] No hablo de dr[C]ogas,
No hablo de tra[A]nzas
No hablo de c[D]osas r[C]aras
[G] Es un pequeño a[C]nhelo,
A D (riff 4)
Una pequeña tentación
[G] El sueño de al[C]gunos
Puede ser cambiar el [A]auto
O tener una c[D]asa de f[C]in de seman[G]a
El sueño de[C] otros puede ser
A (riff 5)
Solo tener una guitarra
Para toc[D]ar esta cancion que escucha[G]s
G-A-C x2
 
 e|-3--0--0--------------------3-0-0---------3-0-0---------------3-0-0--------------||
 B|-3--2--1--------------------3-2-1---------3-2-1---------------3-2-1--------------||
 G|-0--2--0--------------------0-2-0---------0-2-0---------------0-2-0--------------||
 D|-0--2--2--------------------0-2-2---------0-2-2---------------0-2-2--------------||
 A|-2--0--3--3-2-0-3-2-0-3-----2-0-3-3-2-0-3-2-0-3-3-2-0-3-2-0-3-2-0-3--0-3-2-------||
 E|-3----------------------(3)-3-------------3-------------------3------------3-2-0-||

[Em] Uhh U[A]hh
C (riff 3)
Hacia el tren mientras su sueño se alejaba
[Em] Uhh U[A]hh
Las estac[C]iones triste la vieron pasar[D]
[G] No hablo de dr[C]ogas,
No hablo de tra[A]nzas
No hablo de c[D]osas r[C]aras
[G] Es un pequeño a[C]nhelo,
A D (riff 4)
Una pequeña tentación
[G] El sueño de al[C]gunos
Puede ser cambiar el [A]auto
O tener una c[D]asa de f[C]in de seman[G]a
El sueño de[C] otros puede ser
A (riff 5)
Solo tener una guitarra
Para toc[D]ar esta cancion que escucha[G]s
 
 e|-------------------------------------------------------------------------------------||
 B|-------------------------------------------------------------------------------------||
 G|-4h5h4---7---4h5h4-4-4h5h4---7--4h5h4-4-4h5h4---7-4h5h4---7-4h5h4-4-4h5h4-4h5h4------||

x2
 
 A|-------------------------------------------------------------------------------------||
 E|-------------------------------------------------------------------------------------||
 e|-------------------------------------------------------------------------------------||
 B|-------------------------------------------------------------------------------------||
 G|--4-0-0-0-4-0-0-0-0-4-0-0-0-5-0-0-0-5-0-0-0-5-0-0-0-4-0-0-0-4-(0)--------------------||
 D|-------------------------------------------------------------------------------------||
 A|-------------------------------------------------------------------------------------||
 E|-------------------------------------------------------------------------------------||

disfrutenla..

Important: The song above is NOT stored on the Chordie server. The original song is hosted at www.azchords.com. Chordie works as a search engine and provides on-the-fly formatting. Chordie does not index songs against artists'/composers' will. To remove this song please click here.

Text color:
Chord color:
Chord grids: 
Font size:    
Page size: 

A C D Em G
Rate #1 of 2 versions

Login - add to songbook

SHARE PAGE  



You need to log in to post comments