Guitar Tabs, Chords and Lyrics
Update 25:10. 13:00. Site is back up running again. Songbooks are recovered. Woring on getting search back up..


Shine Like It Does  INXS

Album : Listen Like Thieves (1985)
I think this is close. I'm really surprised no one else had tabbed it before. Good tune.
Intro:
[A] [A] [D] [G] [C] [A]  
 
 |---------------------------------2----------3--------------------|
 |----------2-------------------2--3----------3--------1--------2--|
 |----------2-------------------2--2----------0--------0--------2--|
 |-----0----2--------------0----2--0----------0--------2--------2--|
 |-0-2---0--0----------0-2---0--0-------------2--------3--------0--|
 |------------------------------------0-0-2-2-3--------------------|

Verse 1 & 2:
[D] [C] [A] [A]  
 
 |-2---------------------------------------------------------------|
 |-3----------------1----------------2----------------2------------|
 |-2----------------0----------------2----------------2------------|
 |-0----------------2----------------2----------------2------------|
 |------------------3----------------0----------------0------------|
 |-----------------------------------------------------------------|

This is the power‚?¶
And from each moment‚?¶
Chorus:
[D] [G] [D] [G] [D] [G] [D] [G]  
 
 |-2--------3---------2--------3---------2--------3---------2--------3-------|
 |-3--------3------3--3--------3------3--3--------3------3--3--------3------3|
 |-2--------0--4-4----2--------0--4-4----2--------0--4-4----2--------0--4-4--|
 |-0--0-----0---------0--0-----0---------0--0-----0---------0--0-----0-------|
 |----------0------------------0------------------0------------------0-------|
 |------0-2-3--------------0-2-3--------------0-2-3--------------0-2-3-------|

Shine like it does‚?¶
[A] [C] [E] [F#] [G] [A] [D]  
 
 |-----------------------------------------------------------2--------|
 |-2-2-2-2-2-2-2-2-2-2-2-2-2-2-2-2--1-1-1-1-1-1-1-1----------3--------|
 |-2-2-2-2-2-2-2-2-2-2-2-2-2-2-2-2--0-0-0-0-0-0-0-0--------2-2--------|
 |-2-2-2-2-2-2-2-2-2-2-2-2-2-2-2-2--2-2-2-2-2-2-2-2--2-4-5-2-0--------|
 |-0-0-0-0-0-0-0-0-0-0-0-0-0-0-0-0--3-3-3-3-3-3-3-3--2-4-5-0----------|
 |---------------------------------------------------0-2-3------------|

lucky You will find it
Verse 3:
 
 Pm--------------------> D C A A
 |-------------------------2-------------------------------------------------|
 |-------------------------3----------------1----------------2------------2--|
 |-------------------------2----------------0----------------2------------2--|
 |-----0----0------0----0--0----------------2----------------2------------2--|
 |-0-2---------0-2--------------------------3----------------0------------0--|
 |--------3-----------3------------------------------------------------------|

This is the story‚?¶
Chorus:
[D] [G] [D] [G] [D] [G] [D] [G]  
 
 |-2--------3---------2--------3---------2--------3---------2--------3-------|
 |-3--------3------3--3--------3------3--3--------3------3--3--------3------3|
 |-2--------0--4-4----2--------0--4-4----2--------0--4-4----2--------0--4-4--|
 |-0--0-----0---------0--0-----0---------0--0-----0---------0--0-----0-------|
 |----------0------------------0------------------0------------------0-------|
 |------0-2-3--------------0-2-3--------------0-2-3--------------0-2-3-------|

Shine like it does‚?¶
[A] [C] [E] [F#] [G] [A] [D]  
 
 |-------------------------------------------------------------2-2--2-2--2-2-|
 |-2-2-2-2-2-2-2-2-2-2-2-2-2-2-2-2--1-1-1-1-1-1-1-1------------3-3--3-3--3-3-|
 |-2-2-2-2-2-2-2-2-2-2-2-2-2-2-2-2--0-0-0-0-0-0-0-0--------2---2-2--2-2--2-2-|
 |-2-2-2-2-2-2-2-2-2-2-2-2-2-2-2-2--2-2-2-2-2-2-2-2--2-4-5-2---0-0--0-0--0-0-|
 |-0-0-0-0-0-0-0-0-0-0-0-0-0-0-0-0--3-3-3-3-3-3-3-3--2-4-5-0-----------------|
 |---------------------------------------------------0-2-3-------------------|

lucky You will find it
[D] [G] [D] [G] [D] [G] [D] [G]  
 
 |-2--------3---------2--------3---------2--------3---------2--------3-------|
 |-3--------3------3--3--------3------3--3--------3------3--3--------3------3|
 |-2--------0--4-4----2--------0--4-4----2--------0--4-4----2--------0--4-4--|
 |-0--0-----0---------0--0-----0---------0--0-----0---------0--0-----0-------|
 |----------0------------------0------------------0------------------0-------|
 |------0-2-3--------------0-2-3--------------0-2-3--------------0-2-3-------|

Shine like it does‚?¶
[A] [C] [E] [F#] [G] [A] [D]  
 
 |-----------------------------------------------------------2-2--3-3-3-3-3-3|
 |-2-2-2-2-2-2-2-2-2-2-2-2-2-2-2-2--1-1-1-1-1-1-1-1----------3-3--3-3-3-3-3-3|
 |-2-2-2-2-2-2-2-2-2-2-2-2-2-2-2-2--0-0-0-0-0-0-0-0--------2-2-2--0-0-0-0-0-0|
 |-2-2-2-2-2-2-2-2-2-2-2-2-2-2-2-2--2-2-2-2-2-2-2-2--2-4-5-2-0-0-------------|
 |-0-0-0-0-0-0-0-0-0-0-0-0-0-0-0-0--3-3-3-3-3-3-3-3--2-4-5-0-----------------|
 |---------------------------------------------------0-2-3-------------------|

lucky You will find it
[D]You will find it
[D]You will find it
[D]You will find it
[D]You will find it

Important: The song above is NOT stored on the Chordie server. The original song is hosted at www.azchords.com. Chordie works as a search engine and provides on-the-fly formatting. Chordie does not index songs against artists'/composers' will. To remove this song please click here.

Text color:
Chord color:
Chord grids: 
Font size:    
Page size: 

A C D E F# G
Rate #1 of 4 versions

Login - add to songbook

SHARE PAGE  




You need to log in to post comments