Guitar Tabs, Chords and Lyrics
Server problems seems to be fixed. Chordie has been experiencing problems with songs disappearing. These issues now seems to be fixed, but still verifying the fix. If you find anything strange, please email admin@chordie.com.


Time Bomb  Iration

Not 100% sure on the hammer-on/pull-off on the second part of the intro, but it sounds
enough. I also haven't included the solo yet, but I will try to add it once I transcribe
The strumming pattern from the chorus should be easy to replicate if you listen to the
once or twice, it is just reggae-strums.
(intro)
[C] [Em] [D]  
 
 e|------------3---------7---------5---------------------------------|
 B|------------5---------8---------7---------------------------------|
 G|------------5---------9---------7-----------(pause)---------------| (x3)
 D|------------5---------9---------7---------------------------------|
 A|--------3-3-------7-7-------5-5-----------------------------------|
 E|------------------------------------------------------------------|
 e|------------3---------7---------5---------------------------------|
 B|------------5---------8---------7-7-7h8p7-------------------------|
 G|------------5---------9---------7---------------------------------| (x5)
 D|------------5---------9---------7---------------------------------|
 A|--------3-3-------7-7-------5-5-----------------------------------|
 E|------------------------------------------------------------------|

(verse) up strokes
[C] [Em] [D] [D]  
 
 e|------------3--x-------7--x-------5--x------5---------------------|
 B|------------5--x-------8--x-------7--x------7---------------------|
 G|------------5--x-------9--x-------7--x------7---(let ring)--------|
 D|------------5--x-------9--x-------7--x------7---------------------|
 A|------------3--x-------7--x-------5--x------5---------------------|
 E|------------------------------------------------------------------|

(pre/post chorus)
[Bm] [C]  
 
 e|------------2---------3----------------------------|
 B|------------3---------5----------------------------|
 G|------------4---------5----------------------------|
 D|------------4---------5----------------------------|
 A|------------2---------3----------------------------|
 E|---------------------------------------------------|

(chorus)
[Em] [C] [D]  
 
 e|-----------7----------3---------5------------------------------|
 B|-----------8----------5---------7------------------------------|
 G|-----------9----------5---------7------------------------------|
 D|-----------9----------5---------7------------------------------|
 A|-----------7----------3---------5------------------------------|
 E|---------------------------------------------------------------|


Important: The song above is NOT stored on the Chordie server. The original song is hosted at www.azchords.com. Chordie works as a search engine and provides on-the-fly formatting. Chordie does not index songs against artists'/composers' will. To remove this song please click here.

Text color:
Chord color:
Chord grids: 
Font size:    
Page size: 

Bm C D Em
Rate #1 of 3 versions

Jango Player

Login - add to songbook

SHARE PAGE  



You need to log in to post comments