Guitar Tabs, Chords and Lyrics
Update 25:10. 13:00. Site is back up running again. Songbooks are recovered. Woring on getting search back up..


Summer Breeze  The Isley Brothers

The Isley Brothers - Summer Breeze
Intro:
[Am] [F]  
 
 e|--0-3-5--0-3-5--0-3-5--0-3-5--0-3-5--0-3-5--0-3-5--0-3-5--|
 B|----------------------------------------------------------|
 G|----------------------------------------------------------|
 D|----------------------------------------------------------|
 A|----------------------------------------------------------|
 E|----------------------------------------------------------|

Palm mute all.
Interlude solo:
[Am] [F] [C] [F] [Am] [F]  
 
 e|-------------------------------|
 B|------8------------------------|
 G|----5---7b9-7-5-4h5p4----------|
 D|--7-------------------7-5h7-7--|
 A|-------------------------------|
 E|-------------------------------|

Chorus:
[F]Summer breeze [Em]makes me feel fine
F C Bb+(Chorus solo)
Blowing through the jasmine in my mind
[F]Summer breeze [Em]makes me feel fine
[F]Blowing through the jasmine in my [C]mind
All in my [D]mind
Chorus Solo:
[Bb]  
 
 e|----------------------|
 B|----------------------|
 G|--9-10-/12-10~-9~-5~--|
 D|----------------------|
 A|----------------------|
 E|----------------------|

Verse 1
[A]See the curtains [C]hanging in the window
[G]In the evening [D]on a Friday [A]night[C]
[A]A little light a-[C]shining through the window
[G]Lets me know [D]everything‚??s [A]alright
Chorus:
[F]Summer breeze [Em]makes me feel fine
[F]Blowing through the jasmine in my [C]mind
[F]Summer breeze [Em]makes me feel fine
[F]Blowing through the jasmine in my [C]mind
Verse 2
[Am]Sweet days of [F]summer, t[C]he jasmines [F]in bloom
[Am]July is [F]dressed up and [C]playing her [F]tune
When I come [F]home from a [Em]hard days work
And you're [F]waiting there, not a [C]care in the [D]world
Verse 3
[A]See the smile a-[C]waiting in the kitchen
[G]Food cooking[D] and the plates for [A]two[C]
[A]Feel the arms that [C]reach out to hold me
[G]In the evening[D] when the day is [A]through
Chorus
[F]Summer breeze makes me feel [Em]fine
[F]Blowing through the jasmine in my [C]mind
[F]Summer breeze makes me feel [Em]fine
[F]Blowing through the jasmine in my [C]mind
Interlude Solo:
[Am] [F] [C] [F] [Am] [F]  
 
 e|------------------------------------------------------------|
 B|------8-----------------------------------------------------|
 G|----5---7b9-7-5-4h5p4---------5h7-5h7-5h7-4~------2~--------| x2
 D|--7-------------------7-5h7-7-------------------------------|
 A|------------------------------------------------------------|
 E|------------------------------------------------------------|

Wh..............
End solo: (It is long but not too difficult,
and yes I was sad enough to tab the whole thing...)
 
 e|----------------------------------------------------------12-15p12-----|
 B|--17p15p13-15b17~-15b17r15-13h15p13----13h15-15b17~-15b17----------15--|
 G|------------------------------------14---------------------------------|
 D|-----------------------------------------------------------------------|
 A|-----------------------------------------------------------------------|
 E|-----------------------------------------------------------------------|
 e|--12h15-15b17~-15b17~-15b17r15b17r15-15b17~-15b17~-12h15p12----12---------|
 B|------------------------------------------------------------15----15b17~--|
 G|--------------------------------------------------------------------------|
 D|--------------------------------------------------------------------------|
 A|--------------------------------------------------------------------------|
 E|--------------------------------------------------------------------------|
 e|-------------------------------------13-----------------------------------|
 B|--15-15b17-15-15b17-15-15b17~-15b17~-13-15-13h15p13-15b17~-15b17~-15b17~--|
 G|--------------------------------------------------------------------------|
 D|--------------------------------------------------------------------------|
 A|--------------------------------------------------------------------------|
 E|--------------------------------------------------------------------------|
 e|--12-12h15p12-----------------------------------------------------|
 B|--------------15-15b17-15-13h15p13----13----13h15p13----13h14h15--|
 G|-----------------------------------14----14----------14-----------|
 D|------------------------------------------------------------------|
 A|------------------------------------------------------------------|
 E|------------------------------------------------------------------|
 e|--19b20~----15-16-17-15-17~-15-17-15-17~-15-17p15----15h17-15----15-17--|
 B|--------------------------------------------------17----------17--------|
 G|------------------------------------------------------------------------|
 D|------------------------------------------------------------------------|
 A|------------------------------------------------------------------------|
 E|------------------------------------------------------------------------|

Wh....................................
 
 e|--------------------------------------------------------------------------|
 B|--17b20~-15-13-15h17p15p13-15-15-13~-13-15p13-15-15b17r15-13-15-13--------|
 G|-------------------------------------------------------------------14-14--|
 D|--------------------------------------------------------------------------|
 A|--------------------------------------------------------------------------|
 E|--------------------------------------------------------------------------|
 e|-----------------------15-13----------------------------------12-15p12--|
 B|--13-15-13h15p13----13-15-13~----13-15-13h1513----13h15-15b17-----------|
 G|-----------------14-----------14---------------14-----------------------|
 D|------------------------------------------------------------------------|
 A|------------------------------------------------------------------------|
 E|------------------------------------------------------------------------|
 e|------------------------------------------------------------------------|
 B|--15b17-13-15p13-----/13-13-15-13\-----13-15-13~----13-15-13~----13-15--|
 G|-----------------14\---------------/14-----------14-----------14--------|
 D|------------------------------------------------------------------------|
 A|------------------------------------------------------------------------|
 E|------------------------------------------------------------------------|
 e|--------12-15p12p10h12h15p12p10h12h15p12p10h12h15p12p10----------------|
 B|--15b17-------------------------------------------------15b17~-15b17~--|
 G|---------------------------------------------------------------14b16---|
 D|-----------------------------------------------------------------------|
 A|-----------------------------------------------------------------------|
 E|-----------------------------------------------------------------------|
 e|------------------------------------15------------------------------|
 B|--15b17-17-15b17-17-15b17~-15b17-17----15b17-15p13----13-15-13------|
 G|---------------------------------------------------14----------14\--|
 D|--------------------------------------------------------------------|
 A|--------------------------------------------------------------------|
 E|--------------------------------------------------------------------|
 e|--------------------------------------------------------------------------|
 B|-----10-8-10~------10----------10----------10-------13--------------------|
 G|--/9----------9-12----h12-9h12----h12-9h12----h12-9----14p12----12h14p12--|
 D|-------------------------------------------------------------14-----------|
 A|--------------------------------------------------------------------------|
 E|--------------------------------------------------------------------------|
 e|--------------------------------------------------------------------------|
 B|-----13h15p13----------------------13-10----------------------------------|
 G|--------------14p12----12h14p12----------12-12b14~------------------------|
 D|--14----------------14----------14----------------------------------------|
 A|--------------------------------------------------------------------------|
 E|--------------------------------------------------------------------------|

Wh........................
 
 e|---------------------------------------------------------------------|
 B|--/13\-------------------------13------------------------------------|
 G|-------------14-12-14-------12----14-12----------14-12-14~-------12--|
 D|-------12-14----------12-14-------------14-12-14-----------12h14-----|
 A|---------------------------------------------------------------------|
 E|---------------------------------------------------------------------|
 e|---------------------------------------------------------------------|
 B|--13-15p13----13-----------------------------------------------------|
 G|-----------14----14-14p12----12-14-12----14p12----14p12----14p12-----|
 D|--------------------------14----------14-------14-------14-------14--|
 A|---------------------------------------------------------------------|
 E|---------------------------------------------------------------------|
 e|------------------------------------------------------------------------|
 B|------------------------------------------------------------------------|
 G|--14p12----12-14-12----12-14-14p12----14p12----14p12----12-14-14p12-----|
 D|--------14----------14-------------14-------14-------14-------------14--|
 A|------------------------------------------------------------------------|
 E|------------------------------------------------------------------------|
 e|---------------------------------------------------------15b17r15-15b17~--|
 B|--------------------------------------------------------------------------|
 G|--14p12----14p12----12-14-14p12----14p12-12~------------------------------|
 D|--------14-------14-------------14-------14~------------------------------|
 A|--------------------------------------------------------------------------|
 E|--------------------------------------------------------------------------|

Wh..............
 
 e|--15b17-15-15b17-15b17-15b17-15b17~-12-15p12----12----------15b17~--|
 B|---------------------------------------------15----15-15b17---------|
 G|--------------------------------------------------------------------|
 D|--------------------------------------------------------------------|
 A|--------------------------------------------------------------------|
 E|--------------------------------------------------------------------|
 e|--15b17-17-15b17-17-15b17-17-15b17~-12-15p12----------12-15p12-----------|
 B|---------------------------------------------15-15b17----------15-13-----|
 G|---------------------------------------------------------------------14--|
 D|-------------------------------------------------------------------------|
 A|-------------------------------------------------------------------------|
 E|-------------------------------------------------------------------------|
 e|---------------------------------------------------------------------|
 B|--13-15-13----15b17r15p13-------15b17r15p13-------15b17r15p13--------|
 G|-----------14-------------14----------------14----------------14-----|
 D|-----------------------------14----------------14----------------14--|
 A|---------------------------------------------------------------------|
 E|---------------------------------------------------------------------|

Fade completely out.
| / slide up
| \ slide down
| h hammer-on
| p pull-off
| ~ vibrato
| + harmonic
| x Mute note
| TP Trem pick
| b Bend note
| r Release note
| Wh Whammy bar

Important: The song above is NOT stored on the Chordie server. The original song is hosted at www.azchords.com. Chordie works as a search engine and provides on-the-fly formatting. Chordie does not index songs against artists'/composers' will. To remove this song please click here.

Text color:
Chord color:
Chord grids: 
Font size:    
Page size: 

A Am Bb C D Em F G
Rate #1 of 3 versions

Jango Player

Login - add to songbook

SHARE PAGE  



You need to log in to post comments