Guitar Tabs, Chords and Lyrics
Major upgrade!! After one year development the new version of Chordie is now online! Please give feedback.


A Song for Amy  Jack Ingram

 

Song For Amy
Written and performed by Jack Ingram
Intro:
[G] [G/F#] [Am] [D] [Cadd9]  
 
 e|----3-3--3-3-----3-3--3-3-----0-0-----0-0--0-0----2-2--2-2-----3-3--3-3-|
 B|----3-3--3-3-----3-3--3-3-----1-1-----1-1--1-1----3-3--3-3-----3-3--3-3-|
 G|----0-0--0-0-----0-0--0-0-----2-2-----2-2--2-2----2-2--2-2-----0-0--0-0-|
 D|----0-0--0-0-----0-0--0-0-----2-2-----2-2--2-2--0-0-0--0-0-----2-2--2-2-|
 A|----2-2--2-2-----2-2--2-2---0-----2-3-----------------------3--3-3--3-3-|
 E|-3--3-3--3-3---2--------------------------------------------------------|

[G]  
 
 e|-----3-3--3-3-----3-3--3-3--|
 B|-----3-3--3-3-----3-3--3-3--|
 G|-----0-0--0-0-----0-0--0-0--|
 D|-----0-0--0-0-----0-0--0-0--|
 A|-----2-2--2-2-----2-2--2-2--|
 E|--3--3-3--3-3--3--3-3--3-3--|

Verses:
[G]My words they m[G/F#]ay sound familiar[Am]
[D]Like ones you [Cadd9]may have heard before[G]
[G]When I tried to[G/F#] write you a love so[Am]ng
[D]I simply could[Cadd9] think of nothing more[G]
Chorus:
[D]I love you, I [Cadd9]want you and I [G]need you
[D]I'd love to [Cadd9]have you by my s[G]ide
[D]I love you, I [Cadd9]want you and I [G]need you
[D]Your love gives my [Cadd9]soul a place to [G]hide
Additional lyrics:
I've thought of different ways to tell you
Words however come up short
Of the way I really feel about you
Of the way you're always on my mind
How can I say it any different?
The words they all mean the same
I love you, I want you and need you
A rose is still a rose by another name
The words of those who've come before me
May have sparkled on the page and made you high
All I know is the thought of life without you
Is enough to make the strongest man cry
Amy when I speak to you please listen
Smile, laugh, or cry but don't walk away
I love you, I want you, and I need you
Please tell me that you feel the same
My words, they may sound familiar
Like ones you may have heard before
But never were they said with such conviction
I know they will ring true forever more
 
 -----------------------------------------------------------------------------

To order Cd's, tapes, get booking info or add yourself to Jack Ingram's
mailing list call 1-800-333-0766 or 214-696-0766 in Dallas
 
 ----------------------------------------------------------------------------

Any additional comments or corrections are welcomed
Craig Scrimpshire

Important: The song above is NOT stored on the Chordie server. The original song is hosted at www.azchords.com. Chordie works as a search engine and provides on-the-fly formatting. Chordie does not index songs against artists'/composers' will. To remove this song please click here.

Text color:
Chord color:
Chord grids: 
Font size:    
Page size: 

Am Cadd9 D G G/F#
Rate #1 of 5 versions

Login - add to songbook

SHARE PAGE  




You need to log in to post comments