Guitar Tabs, Chords and Lyrics
Server problems seems to be fixed. Chordie has been experiencing problems with songs disappearing. These issues now seems to be fixed, but still verifying the fix. If you find anything strange, please email admin@chordie.com.


Vagabond  Jack Savoretti

 
 -------------------------------------------------------------------------------

VAGABOND - Jack Savoretti
 
 -------------------------------------------------------------------------------

Tabbed by: Elie Truyen
E-mail: elie.truyen@gmail.com
See: https://www.youtube.com/watch?v=vFOOuCNbuE8
Tuning: Standard
INTRO:
 
 e|-0------0------0----|-7------7------7----|-8------8------8----|-10------10------10----|
 B|---10-----10-----10-|---10-----10-----10-|---10-----10-----10-|----10------10------10-|
 G|------9------9------|------9------9------|------9------9------|-------9-------9-------|
 D|--------------------|--------------------|--------------------|-----------------------|
 A|--------------------|--------------------|--------------------|-----------------------|
 E|--------------------|--------------------|--------------------|-----------------------|
 e|-0------0------0----|-7------7------7----|-8------8------8----|----12-12-12-12-12-12-12-|
 B|---10-----10-----10-|---10-----10-----10-|---10-----10-----10-|----10-10-10-10-10-10-10-|
 G|------9------9------|------9------9------|------9------9------|-----9--9--9--9--9--9--9-|
 D|--------------------|--------------------|--------------------|-------------------------|
 A|--------------------|--------------------|--------------------|-------------------------|
 E|--------------------|--------------------|--------------------|-------------------------|

[Am] [Am] [F] [F]  
 
 e|-0------0------0----|-7------7------7----|-8------8------8----|-10------10------10----|
 B|---10-----10-----10-|---10-----10-----10-|---10-----10-----10-|----10------10------10-|
 G|------9------9------|------9------9------|------9------9------|-------9-------9-------|
 D|--------------------|--------------------|--------------------|-----------------------|
 A|--------------------|--------------------|--------------------|-----------------------|
 E|--------------------|--------------------|--------------------|-----------------------|

Dsus2 Dsus2 G* E*
 
 e|-0------0------0----|-7------7------7----|-8------8------8----|----12-12-12-12-12-12-12-|
 B|---10-----10-----10-|---10-----10-----10-|---10-----10-----10-|----10-10-10-10-10-10-10-|
 G|------9------9------|------9------9------|------9------9------|-----9--9--9--9--9--9--9-|
 D|--------------------|--------------------|--------------------|-------------------------|
 A|--------------------|--------------------|--------------------|-------------------------|
 E|--------------------|--------------------|--------------------|-------------------------|

[Am]Sailed across the open water[G] [F]
[F]Slow danced along the border
[E]Tasted all, the local daughters
[Am]treat 'em with [F]captain's [G]orders
[Am]Another night, sleeping rough[G] [F]
[F]You think you're hard and you think you're tough
[E]So you say that you're made out of the same stuff
[Am]No time for sadness and no [F]time for l[G]ove
[F]The life of a vagabond[Am]
[F]Searching for a fool's [Am]gold
With the [F]eyes of a gypsy[Am]
G* F
And the life of a rebel soul
Sing the [F]words to a love song[Am]
G* F
Searching for a heart of gold
F G* Am
And the life of a vagabond is an endless road
 
 D|-------0-------------|
 A|---0-3---3-0---0-----|
 E|-3-----------3-------|

[Am]Saddle up for the ride[G] [F]
[F]Too much fun too little time
[E]Every day and every night
[Am]I take like a thief and give [F]back like a [G]child
[Am]Some say, I've gone astray[G] [F]
[F]It's too late for a boring stray
[E]I will never remember your name
[Am]Come over here let me [F]show you the [G]way
[F]Of the life of a vagabon[Am]d
[F]Searching for a fool's [Am]gold
With the [F]eyes of a gypsy[Am]
G* F
And the life of a rebel soul
Sing the [F]words to a love song[Am]
G* F
Searching for a heart of gold
F G* Am
And the life of a vagabond is an endless road
 
 D|-------0-------0-----|
 A|---0-3---3-0---------|
 E|-3-----------3-------|

[Dsus2]With the moon as my [Am]witness,
the [Am]open road is my [E]weakness, ohhh
SOLO:
Am G F Dsus2 E*
[F]The life of a vagabond[Am]
[F]Searching for a fool's [Am]gold
With the [F]eyes of a gypsy[Am]
G* F
And the life of a rebel soul
Sing the [F]words to a love song[Am]
G* F
Searching for a heart of gold
F G* E F
And the life of a vagabond is an endless road
F G* Am
And the life of a vagabond is an endless road
F Am G* F F Am G* F
Hey, hi hey hey hey, yeah hey, yeh hey, hey hi hey hey hey, hey hey hey hey hey ...
F G* Am
And the life of a vagabond is an endless road ..

Important: The song above is NOT stored on the Chordie server. The original song is hosted at www.azchords.com. Chordie works as a search engine and provides on-the-fly formatting. Chordie does not index songs against artists'/composers' will. To remove this song please click here.

Text color:
Chord color:
Chord grids: 
Font size:    
Page size: 

Am Dsus2 E F G
Rate #1 of 1 versions

Jango Player

Login - add to songbook

SHARE PAGE  



You need to log in to post comments