Guitar Tabs, Chords and Lyrics
Server problems seems to be fixed. Chordie has been experiencing problems with songs disappearing. These issues now seems to be fixed, but still verifying the fix. If you find anything strange, please email admin@chordie.com.


Moving On  James

[Guitar 1] 
[F] [C] [Bb] [F]  
 
 e|1-----------------0-----------------1-----------------1--------------------|
 B|1-----------------1-----------------3-----------------1--------------------|
 G|2-x16-------------0-x16-------------3-x16-------------2-x16----------------| x2
 D|3-----------------2-----------------3-----------------3--------------------|
 A|3-----------------3-----------------1-----------------3--------------------|
 E|1-----------------x-----------------x-----------------1--------------------|

[Guitar 2] 
[F] [C] [Bb] [F]  
 
 e|1~----------------0~-----------------1~-----------------1~-----------------|
 B|1~----------------1~-----------------3~-----------------1~-----------------|
 G|2~----------------0~-----------------3~-----------------2~-----------------|
 D|3~----------------2~-----------------3~-----------------3~-----------------|
 A|3~----------------3~-----------------1~-----------------3~-----------------|
 E|1~----------------x------------------x------------------1~-----------------|

F6 c6 C Bb F
 
 e|1-------0~--------0~-----------------1~------------------------------------|
 B|3-------1~--------1~-----------------3~------------------------------------|
 G|2-------2~--------0~-----------------3~-------------------0----------------|
 D|3-------2~--------2~-----------------3~-3-------------------7--------------|
 A|0-------3~--------3~-----------------1~----------5-8-10-8------------------|
 E|x-------x---------x------------------x-------------------------------------|

[Pre-Cborus] Now my bags are packed...
[Guitar 1] 
[F] [C] [Dm] [Bb]  
 
 e|1-----------------0------------------1------------------1------------------|
 B|1-----------------1------------------3------------------3------------------|
 G|2-x16-------------0-x16--------------2-x16--------------3-x16--------------| x2
 D|3-----------------2------------------0------------------3------------------|
 A|3-----------------3------------------x------------------1------------------|
 E|1-----------------x------------------x------------------x------------------|

[Guitar 2] 
 
 e|---------------------------------------------------------------------------|
 B|------15~-13~------------15~-13~------------15~-13~------------15~-13~-----|
 G|---------------------------------------------------------------------------|
 D|---------------------------------------------------------------------------|
 A|---------------------------------------------------------------------------|
 E|---------------------------------------------------------------------------|
 e|---------------------------------------------------------------------------|
 B|-----13/15-13-----------13/15\13-----------13/15\13------------------------|
 G|---------------------------------------------------------------------------|
 D|---------------------------------------------------------------------------|
 A|---------------------------------------------------------------------------|
 E|---------------------------------------------------------------------------|

[Cborus] 
[Guitar 1] 
[F] [C] [Dm] [Bb]  
 
 e|1-----------------0------------------1------------------1------------------|
 B|1-----------------1------------------3------------------3------------------|
 G|2-x16-------------0-x16--------------2-x16--------------3-x16--------------| x2
 D|3-----------------2------------------0------------------3------------------|
 A|3-----------------3------------------x------------------1------------------|
 E|1-----------------x------------------x------------------x------------------|

[Guitar 2] 
 
 e|-----------------------------------------------13---------------13--15-17-13--|
 B|------15~-13~------------15~-13~------------15----15~--------15---------------|
 G|------------------------------------------------------------------------------| x2
 D|------------------------------------------------------------------------------|
 A|------------------------------------------------------------------------------|
 E|------------------------------------------------------------------------------|

[Interlude] 
[Guitar 1] 
[Bb] [Gm] [Dm]  
 
 e|1-----------------3-----------------1--------------------------------------|
 B|3-----------------3-----------------3--------------------------------------|
 G|3-x8--------------3-x8--------------2-x16----------------------------------|
 D|3-----------------5-----------------0--------------------------------------|
 A|1-----------------5-----------------x--------------------------------------|
 E|x-----------------3-----------------x--------------------------------------|

[Bb] [Gm] [Dm]  
 
 e|1-----------------3-----------------1-----------------0--------------------|
 B|3-----------------3-----------------3-----------------1--------------------|
 G|3-x8--------------3-x8--------------2-x8--------------0-x8-----------------|
 D|3-----------------5-----------------0-----------------2--------------------|
 A|1-----------------5-----------------x-----------------3--------------------|
 E|x-----------------3-----------------x-----------------x--------------------|

[Guitar 2] 
 
 e|---------------------------------------------------------------------------|
 B|-15---15N13Nr15---13/15---15N13Nr15---13~ ---------------------------------| *Tremolo can be replaced
 G|---------------------------------------------------------------------------| with slide
 D|---------------------------------------------------------------------------|
 A|---------------------------------------------------------------------------|
 E|---------------------------------------------------------------------------|

[Solo] 
 
 e|-13---12/13---12/15-13-15-15/17-17---17p15-13-13-----------------------------------|
 B|---------------------------------------------------15\13/15---13/15--15-15-18-15---|
 G|-----------------------------------------------------------------------------------|
 D|-----------------------------------------------------------------------------------|
 A|-----------------------------------------------------------------------------------|
 E|-----------------------------------------------------------------------------------|

[Final Chorus}
Guitar 1 remains the same
[Guitar 2] 
 
 e|----------------------------------------------------------------13-15-17-13---|
 B|-------15-13-----------------------------------8------------15----------------|
 G|------------------------5h7-5-------------7h10--------------------------------|
 D|------------------------------------------------------------------------------|
 A|------------------------------------------------------------------------------|
 E|------------------------------------------------------------------------------|
 e|---------------------------------------------------------------------------|
 B|-------15\13---------------------------------------------------------------|
 G|---------------------------------------------------------------------------|
 D|---------------------------------------------------------------------------|
 A|---------------------------------------------------------------------------|
 E|---------------------------------------------------------------------------|

[Outro] 
[Guitar 1] 
[F]  
 
 e|1--------------------------------------------------------------------------|
 B|1--------------------------------------------------------------------------|
 G|2--------------------------------------------------------------------------|
 D|3--------------------------------------------------------------------------|
 A|3--------------------------------------------------------------------------|
 E|1--------------------------------------------------------------------------|

[Guitar 2] 
[C6]  
 
 e|0~----------------0~----------------0~----------------0~-------------------|
 B|1~----------------1~----------------1~----------------1~-------------------|
 G|2~----------------2~----------------2~----------------2~-------------------|
 D|2~----------------2~----------------2~----------------2~-------------------|
 A|3~----------------3~----------------3~----------------3~-------------------|
 E|x-----------------x-----------------x-----------------x--------------------| 


Important: The song above is NOT stored on the Chordie server. The original song is hosted at www.azchords.com. Chordie works as a search engine and provides on-the-fly formatting. Chordie does not index songs against artists'/composers' will. To remove this song please click here.

Text color:
Chord color:
Chord grids: 
Font size:    
Page size: 

Bb C C6 Dm F Gm
Rate #1 of 1 versions

Jango Player

Login - add to songbook

SHARE PAGE  



You need to log in to post comments