Guitar Tabs, Chords and Lyrics
Server problems seems to be fixed. Chordie has been experiencing problems with songs disappearing. These issues now seems to be fixed, but still verifying the fix. If you find anything strange, please email admin@chordie.com.


Shower the People  James Taylor

WOW! This tab took me a very very long time
to type up, because of my attention to detail
on this specific song. I think the result is
quite accurate though! I hope this tab helps
you play this beautiful song, however, if you
wish to use this tab on a site or claim credit
for it, please inform me before hand. Thanks!
CAPO 3RD FRET - TABLATURE RELATIVE TO CAPO
INTRO:
 
 ------

[Em7] [D/F#] [G] [A]  
 
 E|-----------------------------|
 B|-----------0-----2-----------|
 G|--0--2--------------2--------|
 D|--------0-----0-----------0--|
 A|-----------------0-----------|
 E|--0--2-----3-----------------|

VERSE 1:
 
 --------

You can [D]play the game and you can [A]act out the part
Though you [Bm]know it wasn't [D/A]written for [G]you
But tell me, [D]how can you stand there with your [A]broken [A#dim7]heart
As[Bm]hamed of play[D/A]ing the [G]fool
[D]One thing can lead to an-[A]other; it doesn't [Bm]take any s[D/A]ac-ri-[G]fice
Oh, [D]father and mother, sis-[A]ter and [A#dim7]brother,
[Bm]if it feels [D/A]nice, don[G]'t think twi[(D/F#)]ce
CHORUS:
 
 -------

[Em7] [A] [Em7] [A]  
 
 E|------------------------0-----------------------------------------|
 B|--------3---0---3---2-----2-------------3---0---3---2-----0-------|
 G|------0---------------2-----2---------0---------0---2---2---------|
 D|----2-------------------------2-----2-------------------------0h2-|
 A|-----------------------------------------------------------0h2----|
 E|--0-------------------------------0-------------------------------|

[Em7] [A] [A#dim7] [Bm] [B7-9/F#]  
 
 E|------------------------------------------------------------------|
 B|--------3-------2---------2-------------3-----------------0-3-0---|
 G|------0-------------0-----------------4-----4---------2-----------|
 D|----2-------------------2---4---2---4---------------1-------------|
 A|------------------0-------1-------2---------------2---------------|
 E|--0---------------------------------------------------------------|

[Em7] [A] [Em7] [A]  
 
 E|------------------------0-------------------------------0--------|
 B|--------3---0---3---2-----2-------------3---0---3---2------------|
 G|------0---------------2-----2---------0---------------2----------|
 D|----2-------------------------2-----2----------------------------|
 A|-----------------------------------------------------------------|
 E|--0-------------------------------0------------------------------|

[Em7] [A] [A#dim7] [Bm] [C] [G]  
 
 E|--------------------------------------------------0---------------|
 B|--------3-------2---------2-------------3---------1-------3-------|
 G|------0-------------0-----------------4-----4-------------0-------|
 D|----2-------------------2---4---2---4---------------------------0-|
 A|------------------0-------1-------2-------------3-----------2-3---|
 E|--0-------------------------------------------------0-2-3---------|

[D/F#]Just [Em7]shower the people you [A]love with love
[Em7]Show them the way that you f[A]eel
[Em7]Things are gonna work out [A7]fine if you [A#dim7]only wi[Bm]ll[F#dim7]
[Em7]Shower the people you [A]love with love
[Em7]Show them the way that you f[A]eel
[Em7]Things are gonna be much b[A]etter if you [A#dim7]only wi[Bm]ll (C G)
VERSE 2: - Same chord progression as first verse.
 
 --------

You can run but you cannot hide;
this is widely known
And what you plan to do with your foolish pride
when you're all by yourself alone
Once you tell somebody the way that you feel
you can feel it beginning to ease
I think it's true what they say about the squeaky wheel
always getting the grease.
CHORUS:
 
 -------

[Em7] [A] [Em7] [A]  
 
 E|------------------------0-----------------------------------------|
 B|--------3---0---3---2-------------------3---0---3---2-------------|
 G|------0---------------2---------------0---------0---2-------------|
 D|----2-------------------------------2-----------------------0-0-2-|
 A|---------------------------------------------------------0h2------|
 E|--0-------------------------------0-------------------------------|

[Em7] [A] [A#dim7] [Bm]  
 
 E|------------------------------------------------------------------|
 B|--------3-------2---------2-------3-------3-2---------3-----3-2-0-|
 G|------0-------------0-------------4-----------2---------4---------|
 D|----2-------------------2---4---2-4-------4-4---2---4-----4-4-2-0-|
 A|------------------0-------1-------2---------------2---------------|
 E|--0---------------------------------------------------------------|

[Em7] [A] [Em7] [A]  
 
 E|--------0-------------------0------------------------------------|
 B|------0---------0---2-----------2-------3-------0----------------|
 G|----0-------0-2---------2-----2-------0-----0-2-----------2------|
 D|------------------0-----------------2----------------------------|
 A|--------------------0-------2---------------------------0--------|
 E|--0---------0-2-3-------2---------0---------0-2-3----------------|

[D/F#]Just [Em7]shower the people you [A]love with love
[Em7]Show them the way that you f[A]eel
[Em7]Things are gonna work out [A7]fine if you [A]only wi[Bm]ll[F#dim7]
OUTRO: - Repeat to fade.
 
 ------

[Em7] [A] [Em7] [A]  
 
 E|--------0-------------------0-----------------------------2------|
 B|--0---0---------0---2-----------2-------3-------0----------------|
 G|----0-------0-2---------2-------------0-----0-2---------2--------|
 D|--0---------------------------------2----------------------------|
 A|--------------------0-------2---------------------------0--------|
 E|--0---------0-2-3-------2---------0---------0-2-3----------------|

[Em7]Shower the people you [A]love with love; [Em7]show them the way that you [A]feel
 
 ---------------------------------------------
 ---------------------------------------------


Important: The song above is NOT stored on the Chordie server. The original song is hosted at www.azchords.com. Chordie works as a search engine and provides on-the-fly formatting. Chordie does not index songs against artists'/composers' will. To remove this song please click here.

Text color:
Chord color:
Chord grids: 
Font size:    
Page size: 

A A#dim7 A7 Bm C D D/F# Em7 F#dim7 G
Rate #1 of 5 versions

Login - add to songbook

SHARE PAGE  




You need to log in to post comments