Guitar Tabs, Chords and Lyrics
Server problems seems to be fixed. Chordie has been experiencing problems with songs disappearing. These issues now seems to be fixed, but still verifying the fix. If you find anything strange, please email admin@chordie.com.


Como peces en el agua  Jarabe de Palo

Chords: C#m E B A
Standart tuning
Album Bonito.
Utilizar el Mi de la introducción.
Introducción
[C#m] [E] [C#m] [E] [C#m] [E]  
 
 |---------------------------------------------------------------|
 |-----5-----------9-------5------------9-------5------------9---|
 |-------6---------9---------6----------9---------6----------9---|
 |---------6-----9----9--------6------9----9---------6-----9-----|
 |--4--------/-7---------4--------/-7---------4--------/-7-------|
 |---------------------------------------------------------------|

[B] [A]  
 
 |-------------------|
 |----4----------2---|
 |------4--------2---|
 |--------4----2---2-|
 |--2-------0--------|
 |-------------------|

La segunda parte tienen una pequeña variación, algo así:
[B] [A]  
 
 |-------------|
 |--7---5-5----|
 |---8--6-6----|
 |----9-7-7----|
 |-------------|
 |-------------|

Iba tan dep[C#m]risa que no te vi pas[E]ar
Tan deprisa[C#m] que no veia n[E]ada,
Tan deprisa[C#m] que me perdí el pai[E]saje
Y la belleza q[B]ue me rodeab[A]a.
Iba tan dep[C#m]risa que no me di cue[E]nta,
Tan deprisa[C#m] que la vida se escap[E]aba,
Tan deprisa[C#m] que el presente era [E]pasado
A cada paso qu[B]e daba.[A]
Interludio:
2x
 
 |----------------------------------------------------|
 |---------5---------5----------5----4---4------------|
 |-----6-6------6--6--------6--6------4---4-----------|
 |(7)/6-6--(7)/6--6----(7)/6--6--------4---4-/-9--4--|
 |--------------------------------------2---2---------|
 |----------------------------------------------------|

Quería par[C#m]ar a disfrutar de los[E] olores
Del suave v[C#m]aivén del juego de l[E]os amantes,
Quería par[C#m]ar y recrearme en la [E]locura
Cuando dos cue[B]rpos se [A]juntan.
Quería par[C#m]ar a disfrutar de los[E] momentos
Del suave v[C#m]aivén de los peces e[E]n el agua,
Quería par[C#m]ar pero iba tan depri[E]sa
Que se me esca[B]pó la v[A]ida.
Iba[C#m] tan deprisa, Que no cai en la [E]cuenta
Que [B]corria y corria, Y que n[A]o tenia prisa.
Iba[C#m] tan deprisa Que no cai en la c[E]uenta
Que [B]corria y corria Sin sabe[A]r a donde iba.
 
 |----------------------------------------------------|
 |---------5---------5----------5----4---4------------|
 |-----6-6------6--6--------6--6------4---4-----------|
 |(7)/6-6--(7)/6--6----(7)/6--6--------4---4-/-9--4--|
 |--------------------------------------2---2---------|
 |----------------------------------------------------|
 |----------------------------------------------------|
 |---------5---------5----------5----4----2-2---------|
 |-----6-6------6--6--------6--6------4-----2---------|
 |(7)/6-6--(7)/6--6----(7)/6--6--------4-----2--------|
 |--------------------------------------2-----0-------|
 |----------------------------------------------------|

Iba[C#m] tan deprisa, Que no cai en la [E]cuenta
Que [B]corria y corria, Y que n[A]o tenia prisa.
Iba[C#m] tan deprisa Que no cai en la c[E]uenta
Que [B]corria y corria Sin sabe[A]r a donde iba.

Important: The song above is NOT stored on the Chordie server. The original song is hosted at www.azchords.com. Chordie works as a search engine and provides on-the-fly formatting. Chordie does not index songs against artists'/composers' will. To remove this song please click here.

Text color:
Chord color:
Chord grids: 
Font size:    
Page size: 

A B C#m E
Rate #1 of 3 versions

Login - add to songbook

SHARE PAGE  




You need to log in to post comments