Guitar Tabs, Chords and Lyrics
Server problems seems to be fixed. Chordie has been experiencing problems with songs disappearing. These issues now seems to be fixed, but still verifying the fix. If you find anything strange, please email admin@chordie.com.


Palmetto Rose  Jason Isbell

Palmetto rose in[A] the AC vent
Cross stitched pillow where the head rest went
[D]Said his cab was his orneriest friend
[A]Left him jumping like trees in the wind
[A]Thought he had the red lights memorized
Glass in the gravel like the stars in the sky
[D]In that slow motion minute between living and dead
[A]Looked in my eyes and he told me, he said
This [A]war that I wage to get [D]up every [A]day
It's a fiberglass boat, it's [E]azaleas in [A]May
It's the [F#m]women I [E]love and the [D]law that I [A]hate
Lord let me die in the [D]Iodine [A]State
Lord let me die in the [E]Iodine [A]State
(During the last part of the chorus, mimic the vocal melody with something like this:
 
 |-------------------------------------------------|
 |---------5--5h7-5~-------------------------------|
 |-----s6-------------6s--2--4-2-4-2~--------------|
 |-------------------------------------------------|
 |-------------------------------------------------|
 |-------------------------------------------------| 

[A]Palmetto rose in the sidewalk mud
Pearly white stem and a big green bud
[D]Catch him coming out of a King Street store
[A]Bullsh*t story about the Civil War
[A]You can believe what you want to believe
But there ain't no making up a basket weave
[D]Everybody in the tri-county knows
[A]Who makes the best palmetto rose
This [A]war that I wage to get [D]up every [A]day
It's a fiberglass boat, it's [E]azaleas in [A]May
It's the [F#m]women I [E]love and the [D]law that I [A]hate
Lord let me die in the [D]Iodine [A]State
Lord let me die in the [E]Iodine [A]State
 
 |-------------------------------------------------|
 |---------5--5h7-5~-------------------------------|
 |-----s6-------------6s--2--4-2-4-2~--------------|
 |-------------------------------------------------|
 |-------------------------------------------------|
 |-------------------------------------------------| 

Violin: F#m E D A
Out on [D]Sullivan's Island, they're [A]swimming
On the [D]beach where the big boats rolled[A] in
With the[D] earliest slaves, women and [A]children
Our first [E]American kin
Here on [D]King Street we're selling our [A]roses
[D]Two for a five dollar [A]bill
And [D]tonight after everything [A]closes
I'll follow my own [E]free will
And I've [F#m]taken my [E]fill[D] [A]
I've [F#m]taken my[E] fill[D] [A]
[D] 

Important: The song above is NOT stored on the Chordie server. The original song is hosted at www.azchords.com. Chordie works as a search engine and provides on-the-fly formatting. Chordie does not index songs against artists'/composers' will. To remove this song please click here.

Text color:
Chord color:
Chord grids: 
Font size:    
Page size: 

A D E F#m
Rate #1 of 1 versions

Jango Player

Login - add to songbook

SHARE PAGE  




You need to log in to post comments