Guitar Tabs, Chords and Lyrics
Major upgrade!! After one year development the new version of Chordie is now online! Please give feedback.


While My Guitar Gently Weeps  The Jeff Healey Band

While My guitar Gently weeps -Jeff Healey cover version
 
 |-------0---------------0---------|-------0---------------1---------|
 |-----------1---------------1-----|-----------1---------1-1-1s3S1---|
 |-----2-------2-------2-------2---|-----2-------2-----2---2-2s4S2---|
 |---2-----2-----2---2-----2-----2-|---2-----------2-----------------|
 |-0-------------------------------|---------------------------------|
 |-----------------3---------------|-2-------2-------1-------------3-|
 |-------0---------------3------------|
 |-----1-----1---------3-----3--------|
 |---2---------2-----0---------0------|
 |---------2-----2---------0-----0----|
 |-0----------------------------------|
 |-----------------3------------------|

Gtr I
 
 |---------2-----0-----------------|-0-0-0--0--0-0---0---0---0-----0--|
 |-----3-----3---0-----0---0-------|-1-1-1--1--1-1---1---1---1-----1--|
 |---2---2-----2-----1---1---1-----|-2-2-2--2--2-2---2---2---2-----2--|
 |-0---------------------------2---|-2-2-2--2--2-2---2---2---2-----2--|
 |---------------------------------|-0-0-0--0--0----------------------|
 |-----------------0---------------|-------------3---3---3---3-----3--|

|
| Gtr II
 
 |---------------------------------|----------------------------------|
 |---------------------------------|-----------------5-5-8-5----------|
 |---------------------------------|-----------4-5h7---------7b9==(7)r|
 |---------------------------------|-7-----(7)------------------------|
 |---------------------------3S7-7-|----------------------------------|
 |---------------------------------|----------------------------------|
 |------------------------------------5------------|
 |-----------------8b10-(8)pb10---------8-5--------|
 |-(7)-5-7-(7)-5----------------------------7pb9r==|
 |---------------7---------------------------------|
 |-------------------------------------------------|
 |-------------------------------------------------|
 |-----------------------------------------|
 |-----------------------------------------|
 |-(7)-5---------5h7p5-4-----------5-2s(9)-|
 |-------7-(7)-----------5-----5-7---------|
 |-------------------------5s7-------------|
 |-----------------------------------------|

Verse 1 (Gtr I strums the intro chords throughout all of the verses)
 
 |----------5-----------5------------------------||----------------------|
 |-8---10-----8-----------8-5--------------------||----------------------|
 |---9----------7b9-(7)-------7b9==(7)r(7)-5-----||----------------------|
 |-------------------------------------------7-5-||-7--------------------|
 |-----------------------------------------------||----------------------|
 |-----------------------------------------------||----------------------|

0:40
 
 |----------------5---8-5----------5----------------|-----------------------|
 |------------------5-----8b10-(8)-5-8--------------|-----------------------|
 |---7b9==(7)-(7)----------------------7b9==(7)r(7)-|-5---------------------|
 |--------------------------------------------------|---7-------(7)---------|
 |--------------------------------------------------|-----------------------|
 |--------------------------------------------------|-----------------------|
 |---------------------------|---------------------|
 |---------------------------|---------------------|
 |---------------------------|---------------------|
 |-(7)-----------------------|---------------------|
 |---------------------------|---------------------|
 |---------------------------|---------------------|

0:53
 
 |---8-5-----------8---------------------------------------------|
 |-------8b10==(8)---8r(8)-5-------------------------------------|
 |---------------------------7b9-(7)-7b9-(7)---7b9==(7)r(7)-5----|
 |---------------------------------------------------------------|
 |---------------------------------------------------------------|
 |---------------------------------------------------------------|

Bridge 1
[A] [C#m] [F#m] [C#m] [Bm]  
 
 |-----------------------------|---------------------------------|---------------------------------|
 |-----------------------------|---------------------------------|---------------------------------|
 |-----------------------------|---------------------------------|---------------------------------|
 |-7---------------------------|---------------------------------|---------------------------------|
 |-----------------------------|---------------------------------|---------------------------------|
 |-----------------------------|---------------------------------|---------------------------------|

1:08
[E]  
 
 |-----/9---7---------------------------------------------|
 |-----/9---7--7------------------12----------------------|
 |---------------11b13==(11)-(11)----11r(11)-9-11----9h11S|
 |------------------------------------------------11------|
 |--------------------------------------------------------|
 |--------------------------------------------------------|

[A] [C#m] [F#m] [C#m] [Bm]  
 
 |-------------------------------|
 |-------------------------------|
 |-14----------------------------|
 |-------------------------------|
 |-------------------------------|
 |-------------------------------|

1:28 E
 
 |-----12p9------9---------------------------------9-------------------------||
 |----------12p9---12p9------------12-9--------------12p9--------------------||
 |----------------------11b13-(11)------11b13-(11)--------11pb13r(11)-9-11S==||
 |---------------------------------------------------------------------------||
 |---------------------------------------------------------------------------||
 |---------------------------------------------------------------------------||

Verse 2
 
 |---------------------------|
 |---------------------------|
 |-14------------------------|
 |---------------------------|
 |---------------------------|
 |---------------------------|

1:37 ~~~~~~
 
 |---8pb10====(8)r-8b8.5-5-(5)----------------------|
 |-------------------------------8------------------|
 |---------------------------------7b9==(7)r(7)-5---|
 |------------------------------------------------7-|
 |--------------------------------------------------|
 |--------------------------------------------------|
 |----------------------------|
 |----------------------------|
 |----------------------------|
 |-(7)---------(7)\-----------|
 |----------------------------|
 |----------------------------|
 |-0-0-0-0-0-0-0-0-0-0-0-0-0-|-0-0-0-0-0-3-3-3-3-3-3-3-|
 |-1-1-1-1-1-1-1-1-1-1-1-1-1-|-1-1-1-1-1-3-3-3-3-3-3-3-|
 |-2-2-2-2-2-2-2-2-2-2-2-2-2-|-2-2-2-2-2-0-0-0-0-0-0-0-|
 |-2-2-2-2-2-3-3-3-3-3-3-3-3-|-2-2-2-2-2-0-0-0-0-0-0-0-|
 |-----------3-3-3-3-3-3-3-3-|-0-0-0-0-0-2-2-2-2-2-2-2-|
 |-2-2-2-2-2-----------------|-----------3-3-3-3-3-3-3-|

|
 
 |---------------------------|-------------------------|
 |---------------------------|-------------------------|
 |---------------------------|-------------------------|
 |---------------------------|-------------------------|
 |---------------------------|-------------------------|
 |---------------------------|-------------------------|

1:51
 
 |-----------------5--------------------||
 |---------------5---5----------5----5--||
 |-------7b9-(7)-------7b9==(7)---7r----||
 |--------------------------------------||
 |--------------------------------------||
 |--------------------------------------||

Guitar Solo
 
 |-10b12==(10)-(10)-----(10)r-8-10-12-8-----------|
 |--------------------------------------10-10b13==|
 |------------------------------------------------|
 |------------------------------------------------|
 |------------------------------------------------|
 |------------------------------------------------|
 |------------------------------------------------5---|
 |-(10)-----(10)r(10)-8-10-(10)-8---------------5-----|
 |--------------------------------9s7-5-7b9-(7)-------|
 |--------------------------------------------------7-|
 |----------------------------------------------------|
 |----------------------------------------------------|
 |-----------------------------------|
 |-------------5---------------------|
 |-------4-5-7---7-5-7-4-----------5-|
 |-(7)-7-----------------5-----5-7---|
 |-------------------------5S7-------|
 |-----------------------------------|
 |------------------------------------------------8p5-----5-------5-----------------------|
 |----------5-8p5----5--------------------------------8p5---8p5-----8p5-------------------|
 |-7b9==(7)-------7r---7b9==(7)r(7)p5-7-(7)p5-------------------7-------7b9==(7)r(7)p5----|
 |--------------------------------------------7-5--------------------------------------7--|
 |----------------------------------------------------------------------------------------|
 |----------------------------------------------------------------------------------------|
 |-----------------------------------------|
 |-----------------------------------------|
 |------12------14--------12------14-------|
 |-7S14----7S14------7S14----7S14----10S14-|
 |-----------------------------------------|
 |-----------------------------------------|

~~~~~~~~~
 
 |--------------------------------------------------------------------|
 |-------------------------------------20---------------------20pb22==|
 |-12-------17---(17)-19b21==(19)-(19)----19r(19)p17-19-17-17---------|
 |----14-19-----------------------------------------------------------|
 |--------------------------------------------------------------------|
 |--------------------------------------------------------------------|

~~~~~~~
 
 |------------------------------------------------------------------------------------|
 |-(20)-20r(20)-17--------------------------------------------------------------------|
 |-----------------19pb21r19-17----17-19b21-(19)-17-19-(19)---17-------------17----17-|
 |------------------------------19-------------------------------19-17-17-19----19----|
 |------------------------------------------------------------------------------------|
 |------------------------------------------------------------------------------------|

~~~~~~~ ~~~~~~~
 
 |--------------------------------------------------------------------||
 |--------------------------20pb22-20pb21==(20)r-20-19-17-(17)--------||
 |-19b21==(19)r(19)-17---17------------------------------------19-16/-||
 |--------------------------------------------------------------------||
 |--------------------------------------------------------------------||
 |--------------------------------------------------------------------||

Bridge 2
2:27
 
 |----------------------------------|--------------------------------------|
 |----------------------------------|--------------------------------------|
 |-18-------------18s16-------------|-18---------------16-------(16)-------|
 |----------------------------------|-19---------------18-------(18)-------|
 |----------------------------------|--------------------------------------|
 |----------------------------------|--------------------------------------|
 |----------------------------------------|
 |----------------------------------------|
 |-16s14----------------------------------|
 |-18s16----------------------------------|
 |----------------------------------------|
 |----------------------------------------|

2:34
 
 |---10pb12-----10-9---------------------------|
 |-------------------10------10----------------|
 |----------------------9S11----11-9-(9)---9---|
 |-------------------------------------------9h|
 |---------------------------------------------|
 |---------------------------------------------|

2:40
 
 |------------------------------|------------------------------------------|
 |------------------------------|------------------------------------------|
 |------------------------------|-18-------(18)-------16-------(16)--------|
 |-11---------------------------|-19-------(19)-------18-------(18)--------|
 |------------------------------|------------------------------------------|
 |------------------------------|------------------------------------------|
 |----------------------------------|
 |----------------------------------|
 |-14-------------------------------|
 |-16-------------------------------|
 |----------------------------------|
 |----------------------------------|

2:47 Verse 3
 
 |---9-----------------------------------------------------------||-------------------------------|
 |-----12--------------------------------------------------------||-------------------------------|
 |--------11b13==(11)r(11)-9-11b13==(11)-(11)r==(11)-9-11----9---||-14---------(14)\--------------|
 |--------------------------------------------------------11-----||-------------------------------|
 |---------------------------------------------------------------||-------------------------------|
 |---------------------------------------------------------------||-------------------------------|

3:02
 
 |---10pb12-----10-8-10b12==(10)---10r(10)-8------------|
 |-------------------------------------------10S==13----|
 |------------------------------------------------------|
 |------------------------------------------------------|
 |------------------------------------------------------|
 |------------------------------------------------------|

3:06
 
 |--------------------------------|
 |-10\--------10b13==(10)---------|
 |--------------------------------|
 |--------------------------------|
 |--------------------------------|
 |--------------------------------|
 |---------------------------------------5------------------|-----------------------------|
 |-(10)r====(10)-8-10-(10)-----------------5-8--------------|-----------------------------|
 |-------------------------9s7-5-7b9-(7)-------[7]b9==([7])r|=([7])-5---------------------|
 |----------------------------------------------------------|---------7-(7)---7S5-----5S7-|
 |----------------------------------------------------------|-----------------------------|
 |----------------------------------------------------------|-----------------------------|

Outro
~~~~ ~~~~ ~~~~ ~~~~
 
 |-8-------------11----12---14-12-15-14-||-15b17-(15)---15b17-(15)-----15b17-(15)---15b17-(15)-----|
 |-------8-10S13----14------------------||---------------------------------------------------------|
 |-5-7S9--------------------------------||---------------------------------------------------------|
 |--------------------------------------||---------------------------------------------------------|
 |--------------------------------------||---------------------------------------------------------|
 |--------------------------------------||---------------------------------------------------------|

~~~~ ~~~~
 
 |-15b17-(15)-----15b17-(15)-----20b22-(20)---(20)---------|
 |---------------------------------------------------------|
 |---------------------------------------------------------|
 |---------------------------------------------------------|
 |---------------------------------------------------------|
 |---------------------------------------------------------|
 |---20b21-17-----------------------------------------------------17------------------17---------------------17-------------|
 |------------20-17--------------------------------------------17----20p17-20b22-(20)----20p17------------17----20p17----17-|
 |------------------19b21==(19)r(19)p17----19----17-19b21-(19)---------------------------------19b21-(19)-------------19----|
 |--------------------------------------19----19----------------------------------------------------------------------------|
 |--------------------------------------------------------------------------------------------------------------------------|
 |--------------------------------------------------------------------------------------------------------------------------|
 |---------------------------------20b22==(20)r(20)p17----17-22pb23---22pb24======(22)r(22)-17-20-20pb22-|
 |-----------------------------------------------------20------------------------------------------------|
 |-19b21==(19)r(19)p17----19p17--------------------------------------------------------------------------|
 |---------------------19-------19----------------------------------0------------------------------------|
 |-------------------------------------------------------------------------------------------------------|
 |-------------------------------------------------------------------------------------------------------|
 |-20-17-20-20pb22==(20)r(20)-17-20-20pb22==(20)r(20)-17-20-20pb22==(20)r(20)-17-20-20pb22==(20)r(20)-17-|
 |-------------------------------------------------------------------------------------------------------|
 |-------------------------------------------------------------------------------------------------------|
 |-------------------------------------------------------------------------------------------------------|
 |-------------------------------------------------------------------------------------------------------|
 |-------------------------------------------------------------------------------------------------------|
 |-20-20pb22==(20)r(20)-17---20-20pb22==(20)r(20)-17----17----------------------------------------------------
 |---------------------------------------------------20----20pb22====(20)r(20)p==17----17---------------------
 |----------------------------------------------------------------------------------19----19pb21==(19)r(19)p17
 |------------------------------------------------------------------------------------------------------------
 |------------------------------------------------------------------------------------------------------------
 |------------------------------------------------------------------------------------------------------------

~~~~ ~~~~
 
 ----------------------------------------------------|
 -------------------20-20-20-------------------------|
 ----17-19b21==(19)-19-19-19-19r(19)p17----17--------|
 -19------------------------------------19----19p17h=|
 ----------------------------------------------------|
 ----------------------------------------------------|
 |----------------------------------------------------------------|
 |-------20b22-(20)-----20b22-(20)--------------------------------|
 |-----------------------------------(0)-----19pb21==(19)r(19)-17-|
 |-19-19---------------------------------(0)----------------------|
 |----------------------------------------------------------------|
 |----------------------------------------------------------------|
 |-------------------------------------------------------------------------------|
 |-------------------------------------------------------------------------------|
 |-19----17---19----17---19----17-19----17-19----17-19----17-19----17-19----17---|
 |----19---------19---------19-------19-------19-------19-------19-------19------|
 |-------------------------------------------------------------------------------|
 |-------------------------------------------------------------------------------|

~~~~~~~ ~~~
 
 |--------------------------------------------------------------------20-20-|
 |-----------------------------------------------20b22==(20)r(20)-17--------|
 |-19b21==(19)r(19)p17----17------------------------------------------------|
 |---------------------19----19-(19)-17-------------------------------------|
 |--------------------------------------19-17S15----------------------------|
 |--------------------------------------------------------------------------|

~~~~~~ ~~~~~~~
 
 |-(20)-17-19-19-(19)----17-20-17-19----17--------------|
 |--------------------20-------------20----20b22==(20)--|
 |------------------------------------------------------|
 |------------------------------------------------------|
 |------------------------------------------------------|
 |------------------------------------------------------|
 |---------------------------------------------------------------------------|
 |-(20)r20-17--------------------------------20-------------20---------------|
 |------------19b21==(19)r(19)-17-19b21-(19)----19b21==(19)----19r(19)p17----|
 |------------------------------------------------------------------------19-|
 |---------------------------------------------------------------------------|
 |---------------------------------------------------------------------------|
 |--------------------------------------------------------------|
 |--------------------------17-17-17-17-17-17------------17-17--|
 |---------17-19-19b21-(19)-------------------19b21-(19)--------|
 |-(19)-19------------------------------------------------------|
 |--------------------------------------------------------------|
 |--------------------------------------------------------------|
 |--------------------------------------------------------------------------------------------|
 |--------17---------17---------17--17-17--------17--17---------17--(17)--17------------------|
 |-19b21-(19)-19b21-(19)-19b21-(19)-------19b21-(19)----19b21==(19)-(19)r----19b21==(19)r(19)-|
 |--------------------------------------------------------------------------------------------|
 |--------------------------------------------------------------------------------------------|
 |--------------------------------------------------------------------------------------------|

~~~~
 
 |---------------------------------------------------|
 |---------------------------------------------------|
 |-17-19----17-19-(19)---17-(17)---17b21-(17)--------|
 |-------19------------------------------------------|
 |---------------------------------------------------|
 |---------------------------------------------------|
 |---------------------------------------------------------|
 |---------------------------------------------------------|
 |-(17)-----17------------------------------19b20==(19)-19-|
 |-------------19-(19)-19-17-------------------------------|
 |---------------------------[19]b22-([19])----------------|
 |---------------------------------------------------------|

~~~~
 
 |---------------------------------17h19b20==(19)r(19)-17-22b24==(22)------|
 |------------------20pb22r(20)-17-----------------------------------------|
 |-19r(19)-17-19-17--------------------------------------------------------|
 |-------------------------------------------------------------------------|
 |-------------------------------------------------------------------------|
 |-------------------------------------------------------------------------|

|-22r---22b24==(22)r(22)b24==(22)r(22)-(22)b24==(22)r(22)b24==(22)r(22)b24==(22)r|
 
 |--------------------------------------------------------------------------------|
 |--------------------------------------------------------------------------------|
 |--------------------------------------------------------------------------------|
 |--------------------------------------------------------------------------------|
 |--------------------------------------------------------------------------------|

~~
 
 |-(22)b24==(22)r(22)-(22)b24==(22)r(22)b24====(22)r(22)-20p17-20b22-(20)-20---17-20--|
 |------------------------------------------------------------------------------------|
 |------------------------------------------------------------------------------------|
 |------------------------------------------------------------------------------------|
 |------------------------------------------------------------------------------------|
 |------------------------------------------------------------------------------------|
 |-17---------------------------------------------------------|
 |----20b22==(20)-(20)-(20)---(20)r(20)p17-20b22---(20)-------|
 |------------------------------------------------------------|
 |------------------------------------------------------------|
 |------------------------------------------------------------|
 |------------------------------------------------------------|
 |---8s10-----(10)---[8]-(8)-5-----8-5-----5---8-|
 |---8s10-----(10)-------------8-5-----8-8-------|
 |-----------------------------------------------|
 |-----------------------------------------------|
 |-----------------------------------------------|
 |-----------------------------------------------|
 |--------------------------------8------8-|
 |-8s10-8h10-10-10---8h10-10-8h10---10-----|
 |-----------------------------------------|
 |-----------------------------------------|
 |-----------------------------------------|
 |-----------------------------------------|
 |-10b12==(10)r(10)-8------8----8------8-10b12==(10)r(10)-8-----------8------8-|
 |--------------------10-----10---10------------------------10-8-10-----10-----|
 |-----------------------------------------------------------------------------|
 |-----------------------------------------------------------------------------|
 |-----------------------------------------------------------------------------|
 |-----------------------------------------------------------------------------|
 |-10b12==(10)-10-10-10-10-10---10r(10)-8-10-10-10p8--15b17==(15)-|
 |----------------------------------------------------------------|
 |----------------------------------------------------------------|
 |----------------------------------------------------------------|
 |----------------------------------------------------------------|
 |----------------------------------------------------------------|
 |-(15)r====(15)p12-15-12-15p14p12----12------------------------------------|
 |---------------------------------15----15p13----13-12h13p12---------------|
 |---------------------------------------------14-------------14p12h14p12---|
 |--------------------------------------------------------------------------|
 |--------------------------------------------------------------------------|
 |--------------------------------------------------------------------------|
 |--------------------------------------------------------------------------------------------------------|
 |-------------------------------13-15b17==(15)r(15)p13-15p13-15p13-15p13-15p13-15p13-15p13-15p13-15p==13-|
 |----------------------14p12-14--------------------------------------------------------------------------|
 |-14p12-10----10-12s14-----------------------------------------------------------------------------------|
 |----------12--------------------------------------------------------------------------------------------|
 |--------------------------------------------------------------------------------------------------------|
 |-------------------------------------------------------------------x-------------------|
 |-15b17-(15)-15-13-15-13-15-13-15-13-15-13-15-13-15-13-15b19-(15)---x-15b17==(15)r======|
 |-------------------------------------------------------------------x-------------------|
 |---------------------------------------------------------------------------------------|
 |---------------------------------------------------------------------------------------|
 |---------------------------------------------------------------------------------------|
 |--------------------------------------------------------------17---|
 |-(15)-13----13--------------------20b22==(20)r(20)---17-20-17------|
 |---------14----14-(14)-12------------------------------------------|
 |--------------------------14-12------------------------------------|
 |-------------------------------------------------------------------|
 |-------------------------------------------------------------------|
 |-20b22-(20)---17---(17)----17-20b22==(20)-20---20-20r------*|
 |------------------------20---------------------------------*|
 |------------0----------------------------------------------*|
 |-----------------------------------------------------------*|
 |-----------------------------------------------------------*|
 |-----------------------------------------------------------*|


Important: The song above is NOT stored on the Chordie server. The original song is hosted at www.azchords.com. Chordie works as a search engine and provides on-the-fly formatting. Chordie does not index songs against artists'/composers' will. To remove this song please click here.

Text color:
Chord color:
Chord grids: 
Font size:    
Page size: 

A Bm C#m E F#m
Rate #2 of 2 versions

Login - add to songbook

SHARE PAGE  



You need to log in to post comments