Guitar Tabs, Chords and Lyrics
Update 25:10. 13:00. Site is back up running again. Songbooks are recovered. Woring on getting search back up..


Feuer  Jennifer Rostock

Interpret: Jennifer Rostock
Verse 1:
 
 |------p.m.-----| 

[B] [C] [C#]  
 
 |-2-2/3/4--44-44-44-44-44-44-4---|
 |-3-3/4/5--55-55-55-55-55-55-5---|
 |-4-4/5/6--66-66-66-66-66-66-6---|
 |-4-4/5/6--66-66-66-66-66-66-6---| x5
 |-2-2/3/4--44-44-44-44-44-44-4---|
 |-2-2/3/4--44-44-44-44-44-44-4---|

Ich steh nicht auf den Affentanz, den du vollführst
Wenn du ihre Blicke auf dir kleben spürst
[F#] [C#] [B] [C#] [C#]  
 
 |--22222222-44444444---2/4---44-44-44-44-44-44-4---|
 |--22222222-44444444---3/5---55-55-55-55-55-55-5---|
 |--33333333-55555555---4/6---66-66-66-66-66-66-6---|
 |--44444444-66666666---4/6---66-66-66-66-66-66-6---|
 |--44444444-66666666---2/4---44-44-44-44-44-44-4---|
 |--22222222-44444444---2/4---44-44-44-44-44-44-4---|

Drehst Pirouetten auf der Stelle und jagst deinen eigenen Schwanz
Aber bei den nassen Tonnen gibt's die meiste Resonanz
 
 |------p.m.-----|
 |-2-2/3/4--44-44-44-44-44-44-4---|
 |-3-3/4/5--55-55-55-55-55-55-5---|
 |-4-4/5/6--66-66-66-66-66-66-6---|
 |-4-4/5/6--66-66-66-66-66-66-6---| x2
 |-2-2/3/4--44-44-44-44-44-44-4---|
 |-2-2/3/4--44-44-44-44-44-44-4---|

Ihnen wird feucht um die Knie, wen du von dir sprichst
Und sie polieren dir die Krone, aus der du dir kein Zacken brichst
 
 |--22222222-44444444---2/4------------|
 |--22222222-44444444---3/5------------|
 |--33333333-55555555---4/6------------|
 |--44444444-66666666---4/6------------|
 |--44444444-66666666---2/4------------|
 |--22222222-44444444---2/4------------|

Tausend Worte, die dir schmeicheln - dein Interesse wecken sollen
und du kannst garnicht so viel speicheln, wie sie Speichel lecken wollen
Chorus 1:
[E] [B] [C#] [A]  
 
 |--7..------2..------4..------5..-----|
 |--9..------3..------5..------5..-----|
 |--9..------4..------6..------6..-----| x2
 |--9..------4..------6..------7..-----|
 |--7..------2..------4..------7..-----|
 |--7..------2..------4..------5..-----|

Hast du Feuer? Hast du Feuer? Gib mir Feuer und dann steck dein Streichholz wieder ein
Hast du Feuer? Hast du Feuer? Gib mir Feuer, dann geh bitte wieder heim
[F#] [B]  
 
 |--2..---------------2..--------------|
 |--2..---------------3..--------------|
 |--3..---------------4..--------------|
 |--4..---------------4..--------------|
 |--4..---------------2..--------------|
 |--2..---------------2..--------------|

Die Zigarette danach rauch ich lieber allein.
Verse 2:
Same as Verse 1 with following lyrics:
Du merkst nicht, Wie du dich selber parodierst
Wenn du dir Honig Um dein eigenes Maul schmierst
Ruh dich nicht aus auf deinem Thron, Auf deinem Testosteron
Denn der Frosch und seine Locken Sind nur Halluzination
Du hebst an Jeder gleich dein Bein, Markierst so dein Revier
Aber du bei?t hier auf Granit, Denn ich bin selbst ein Alphatier
Und ich werd nicht vor dir zerflie?en Und ich schwör dir keine Treue
Ich streu nur heute Nacht Meine Perlen vor deine Säue
Chorus 2:
Same as Chorus 1
Bridge:
[F#] [A] [E] [B]  
 
 |--2--------5-------7--------2--------|
 |--2--------5-------9--------3--------|
 |--3--------6-------9--------4--------|
 |--4--------7-------9--------4--------|
 |--4--------7-------7--------2--------|
 |--2--------5-------7--------2--------|

Du schürst das Knurren in meinem Bauch, Du machst nicht satt und das wei? ich eigentlich auch
[F#] [A] [B] [C#]  
 
 |--2--------5-------2--------4--------|
 |--2--------5-------3--------5--------|
 |--3--------6-------4--------6--------|
 |--4--------7-------4--------6--------|
 |--4--------7-------2--------4--------|
 |--2--------8-------2--------4--------|

Aber du schmeckst so gut nach Schall und Rauch, Heut ist Brunft und das färbt ab auf die Vernunft
Chorus 3:
[F#] [C#] [D#] [B]  
 
 |--2..------4..------6\\------2..-----|
 |--2..------5..------7\\------3..-----|
 |--3..------6..------8\\------4..-----|
 |--4..------6..------8\\------4..-----|
 |--4..------4..------6\\------2..-----|
 |--2..------4..------6\\------2..-----|

Hast du Feuer? Hast du Feuer? Gib mir Feuer und dann steck dein Streichholz wieder ein
| not sure here. Sounds like there also is |
| a fast change between B# and B but cant |
| figure this out yet. |
| Sounds good without it though |
[F#] [C#] [D#] [B]  
 
 |--2..------4..------6..------2..-------------------------------|
 |--2..------5..------7..------3..-------------------------------|
 |--3..------6..------8..------4..-------------------------------| x3
 |--4..------6..------8..------4..-------------------------------|
 |--4..------4..------6..------2..-------------------------------|
 |--2..------4..------6..------2..-------------------------------|

Hast du Feuer? Hast du Feuer? Gib mir Feuer, dann geh bitte wieder heim
[G#] [C#]  
 
 |--4-----------------4----------------|
 |--4-----------------5----------------|
 |--5-----------------6----------------|
 |--6-----------------6----------------|
 |--6-----------------4----------------|
 |--4-----------------4----------------|

Die Zigarette danach rauch ich lieber allein.
Outro:
[F#] [C#]  
 
 |--2..---------------2..--------------|
 |--2..---------------3..--------------|
 |--3..---------------4..--------------|
 |--4..---------------4..--------------|
 |--4..---------------2..--------------|
 |--2..---------------2..--------------|

[G#] [C#]  
 
 |--4-----------------4----------------|
 |--4-----------------5----------------|
 |--5-----------------6----------------|
 |--6-----------------6----------------|
 |--6-----------------4----------------|
 |--4-----------------4----------------|

Die Zigarette danach rauch ich lieber allein.
[F#] [C#]  
 
 |--2..---------------2..--------------|
 |--2..---------------3..--------------|
 |--3..---------------4..--------------|
 |--4..---------------4..--------------|
 |--4..---------------2..--------------|
 |--2..---------------2..--------------|

[G#] [C#]  
 
 |--4-----------------4----------------|
 |--4-----------------5----------------|
 |--5-----------------6----------------|
 |--6-----------------6----------------|
 |--6-----------------4----------------|
 |--4-----------------4----------------|

Die Zigarette danach rauch ich lieber allein.
[F#] [C#] [F#] [C#]  
 
 |--2---------------2----------4-----------------4--------------|
 |--2---------------3----------4-----------------5--------------|
 |--3---------------4----------5-----------------6--------------|
 |--4---------------4----------6-----------------6--------------|
 |--4---------------2----------6-----------------4--------------|
 |--2---------------2----------4-----------------4--------------|

Lieber allein.Lieber allein.Lieber allein.Lieber allein.Lieber allein.Lieber allein.
[C#] [F#]  
 
 |--2--------------4--------------|
 |--2--------------5--------------|
 |--3--------------6--------------|
 |--4--------------6--------------|
 |--4--------------4--------------|
 |--2--------------4--------------|

Die Zigarette danach rauch ich lieber allein.

Important: The song above is NOT stored on the Chordie server. The original song is hosted at www.azchords.com. Chordie works as a search engine and provides on-the-fly formatting. Chordie does not index songs against artists'/composers' will. To remove this song please click here.

Text color:
Chord color:
Chord grids: 
Font size:    
Page size: 

A B C C# D# E F# G#
Rate #1 of 5 versions

Jango Player

Login - add to songbook

SHARE PAGE  



You need to log in to post comments