Guitar Tabs, Chords and Lyrics
Update 25:10. 13:00. Site is back up running again. Songbooks are recovered. Woring on getting search back up..


Irgendwo anders  Jennifer Rostock

Jennifer Rostock - Irgendwo Anders by Rentier
Original Tuning 1/2 Step Down
Dieser Tab ist für Standard Tuning!
Intro
 
 e-|--------------------|----------|-
 B-|------9-------5-----|-----9----|-
 G-|----9---9---5-----5-|-----9----|-
 D-|----------------7---|-----9----|-
 A-|--7-----------------|-----7----|-
 E-|--------------------|----------|-

Vers 1
 
 e-|--------------------|----------|-
 B-|------9-------5-----|-----9----|-
 G-|----9---9---5-----5-|-----9----|-
 D-|----------------7---|-----9----|-
 A-|--7-----------------|-----7----|-
 E-|--------------------|----------|-

Der Vorwurf brennt in jeder meiner Zeilen
 
 e-|----9-------------7--|-----5----|-
 B-|------9---------7----|-----5----|-
 G-|--------9-----8------|-----6----|-
 D-|---------------------|-----7----|-
 A-|---------------------|-----x----|-
 E-|--9---------7--------|-----5----|-

in Gesprächen, die sich lieblos nur verkeilen
 
 e-|--------------------|----------|-
 B-|------9-------5-----|-----9----|-
 G-|----9---9---5-----5-|-----9----|-
 D-|----------------7---|-----9----|-
 A-|--7-----------------|-----7----|-
 E-|--------------------|----------|-

dein Versprechen hängt längst schon in den Seilen
 
 e-|----9-------------7--|-----5----|-
 B-|------9---------7----|-----5----|-
 G-|--------9-----8------|-----6----|-
 D-|---------------------|-----7----|-
 A-|---------------------|-----x----|-
 E-|--9---------7--------|-----5----|-

wir kratzen Wunden auf, die nicht mehr heilen
 
 e-|------------------5-|----------|-
 B-|----9-----------5---|-----4----|-
 G-|------9-------6-----|-----4----|-
 D-|--------9-----------|-----4----|-
 A-|--7-----------------|-----2----|-
 E-|------------5-------|----------|-

Doch es gibt keinen Grund, sich jetzt zu hassen
 
 e-|------------------5-|----------|-
 B-|----9-----------5---|-----4----|-
 G-|------9-------6-----|-----4----|-
 D-|--------9-----------|-----4----|-
 A-|--7-----------------|-----2----|-
 E-|------------5-------|----------|-

denn wer ist Schuld daran, wenn Momente sich verpassen?
Die letzen 2 Zeilen sind die Chords:
Cm (9.Bund) F#m (9.Bund)
ich hör nicht deine Worte, sie verlaufen sich im Wind
E (7.Bund) B (7.Bund)
du schaust mich an, doch deine Blicke bleiben blind
Refrain
[F#m]Du bist irgendwo an[A]ders
irgendwo an[E]ders
und ich s[B]pür dich nur noch schwach
[F#m]Du bist irgendwo a[A]nders
irgendwo a[E]nders
B F#m (let ring)
Nacht für Nacht lieg ich neben dir wach
A (let ring)
wir leben doch schon längst nicht mehr unter einem Dach
Bridge
2x Intro
Vers 2
 
 e-|--------------------|----------|-
 B-|------9-------5-----|-----9----|-
 G-|----9---9---5-----5-|-----9----|-
 D-|----------------7---|-----9----|-
 A-|--7-----------------|-----7----|-
 E-|--------------------|----------|-

zu gro?e Worte haben wir vermieden
 
 e-|----9-------------7--|-----5----|-
 B-|------9---------7----|-----5----|-
 G-|--------9-----8------|-----6----|-
 D-|---------------------|-----7----|-
 A-|---------------------|-----x----|-
 E-|--9---------7--------|-----5----|-

aus Angst, wir könnten uns zu sehr verlieben
 
 e-|--------------------|----------|-
 B-|------9-------5-----|-----9----|-
 G-|----9---9---5-----5-|-----9----|-
 D-|----------------7---|-----9----|-
 A-|--7-----------------|-----7----|-
 E-|--------------------|----------|-

aber nichts von dieser Angst ist mehr geblieben
 
 e-|----9-------------7--|-----5----|-
 B-|------9---------7----|-----5----|-
 G-|--------9-----8------|-----6----|-
 D-|---------------------|-----7----|-
 A-|---------------------|-----x----|-
 E-|--9---------7--------|-----5----|-

wir waren zu verschieden, wir sind zu verschieden
Refrain
[F#m]Du bist irgendwo an[A]ders
irgendwo an[E]ders
und ich s[B]pür dich nur noch schwach
[F#m]Du bist irgendwo a[A]nders
irgendwo a[E]nders
B F#m (let ring)
Nacht für Nacht lieg ich neben dir wach
A (let ring) E (Palm Mute)
wir leben doch schon längst nicht mehr unter einem Dach
Bridge 2
Dein S[G#m]chweigen - Dein Schweigen spricht B[C#m]ände
jeder [F#m]Tag beginnt, als wär er schon zu [A]Ende
allein[G#m] zu sein, dazu bin ich vielleich[C#m]t noch nicht bereit
doch noch[F#m] viel schlimmer als das ist die [A]Einsamkeit zu Zw[B]eit
Refrain
2X
[End]  

Important: The song above is NOT stored on the Chordie server. The original song is hosted at www.azchords.com. Chordie works as a search engine and provides on-the-fly formatting. Chordie does not index songs against artists'/composers' will. To remove this song please click here.

Text color:
Chord color:
Chord grids: 
Font size:    
Page size: 

A B C#m E F#m G#m
Rate #1 of 7 versions

Login - add to songbook

SHARE PAGE  




You need to log in to post comments