Guitar Tabs, Chords and Lyrics
Major upgrade!! After one year development the new version of Chordie is now online! Please give feedback.


Cheap Day Return  Jethro Tull

(Intro)
E5 A* E5
 
 E|-0--0---0---0---0-----0-2-3---0---0---0---0---|| \
 B|-5---5---5---5---5----3--------5---5---5---5--|| \
 G|-4----4---4---4---4---4------4---4---4---4----|| Play the whole
 D|-2--------------------0-----------------------|| section twice
 A|-2--------------------0-----------------------|| /
 E|-0--------------------------------------------|| /

_______x2_______
/ \ E5 let ring
 
 E|---0---0---0------|---0-----------------------||
 B|--0---0---0---0-0-|---5-----------------------||
 G|-4---2---1---2-1--|---4-----------------------||
 D|------------------|---2-----------------------||
 A|------------------|---2-----------------------||
 E|------------------|---0-----------------------|| 

___________x2___________
/ \ Emadd9
 
 E|--------------------------|--------------------------||
 B|--------------------------|--------------------------||
 G|------------0-0-0-0-0-0-0-|------------0-------------||
 D|-----0-2-5--4-2-4-2-4-2-4-|-----0-2-5--4-2-4-2-4-2-4-||
 A|-2-3----------------------|-2-3--------2-2-2-2-2-2-2-||
 E|--------------------------|------------0-------------||

[E-] [C]  
 
 E|-------------0------------------0--------------------||
 B|-------------0------------------1--------------------||
 G|-----4-2-----0--4-2-0---2-------0--------------------||
 D|-2-4-----4-0-2--------4---4-0-2-2--------------------||
 A|-------------2------------------3--------------------||
 E|-------------0------------------0--------------------|| 

[(Main)](strumming on lyrics, nothing fancy)
[C] On Preston[D] platform
G G* E-
Do your soft shoe shuffle dance
[C] Brush away the c[D]igarette ash that's
F[G]alling down your [A]pants
[C] And you sadly w[D]onder
G G* E-
Does the nurse treat your old man
The way she sh[D]ould
She m[C]ade you tea
Asked for your autogr[G]aph
G* E-
What a laugh

Important: The song above is NOT stored on the Chordie server. The original song is hosted at www.azchords.com. Chordie works as a search engine and provides on-the-fly formatting. Chordie does not index songs against artists'/composers' will. To remove this song please click here.

Text color:
Chord color:
Chord grids: 
Font size:    
Page size: 

A C D G
Rate #1 of 5 versions

Login - add to songbook

SHARE PAGE  



You need to log in to post comments