Guitar Tabs, Chords and Lyrics
Server problems seems to be fixed. Chordie has been experiencing problems with songs disappearing. These issues now seems to be fixed, but still verifying the fix. If you find anything strange, please email admin@chordie.com.


The Frequency  Jets to Brazil

Jets To Brazil
Perfecting Loneliness
2002 Jade Tree Records
Key: D
Tuning: Standard EADGBe
Chords used:
D - xx0232
D/F# - 2x023x
[F#m]G - [-] [244222]320033
A - x02220
Bm - x24432
Bb - x13331
Intro: D---G- x4
Verse 1:
[D/F#] The terror of the [G]view
[D/F#] the emptiness
of this [G]room
[D/F#] always [G]writing
a[D/F#]---gainst this [G]truth
[D/F#] in the [G]way that a [D/F#]painter
 
 G F#m-G-F#m-Em-F#m-G-F#m-A-

must have a surface to hit
Refrain 1:
[F#m] The paint is flying now
[G] breaking the silence at
[D] the speed of [A]sound
[F#m] Hitting the frequency
[G] she's reaching
back at me
[D] Warm and [A]loud
Warm and [G]loud
D---G- x2
Beautiful demons fly out
Verse 2:
[D/F#] And we're fighting for our [G]lives
[D/F#] to fill the corners up with [G]light
[D/F#] Black spell [G]casting
a[D/F#]---gainst them [G]now
[D/F#] in the [G]way that a [D/F#]bullet
 
 G F#m-G-F#m-Em-F#m-G-F#m-A-

will go until it is stopped
Refrain 2:
[F#m] And all the medicine
[G] went to my head again
[D] Late last [A]night
[F#m] my bed of saccharine
[G] my bad amphetamine
[D] I was [A]lit from with[G]in
burning with means and [D---G-]ends
Chorus 1:
[D] And the [G]city life[A] is
like [G]sugar high
[D] knoc[G]king me [A]out
kee[G]ping me [D]wired
It's in[G]credible
[A] unsteady [G]chemicals
[D] come [G]and go the [A]ebb and [G]flow
[A] When the measure of your
[G]work is the measure of your [D]worth
then you [A]better make it [G]work
Post chorus: D---G- x4
Verse 3:
[D/F#] There's some people
I could [G]name
[D/F#] but it's not
the time or[G] place
[D/F#] to split [G]hairs with
the [D/F#]guys downs[G]tairs
[D/F#]They'll get [G]their
fair [D/F#]share I'm [G]sure
Bb(hold)
The frequency is
gonna take us [D---G-]there
Chorus 2:
[D] And the [G]city kids
[A] the angry [G]with it kids
[D] hate [G]every[A]thing
the [G]first time
[D] It's in[G]credible
[A] the kind of [G]chemicals
[D] knoc[G]king a[A]round in [G]my mind
[A] In the winter of my [G]night I
found a desperate kind of [D]light
and nothing [A]comes without a [G]fight
Bridge:
[Bm] You want to [G]know
[Bm] where the good thoughts [G]grow
[Bm] but you ought to [G]know
Bm G(hold)
where all the good thoughts go
Verse 4:
[D] You can't af[G]ford
to miss a [A]day
Call in [G]sick you
better s[D]tay that way[G]
S[A]tay that way[G]
Chorus 3:
[D] And the [G]city life[A] is just some
[G]other guy[D] knoc[G]king me [A]out
was[G]ting my [D]time Upper [G]middle class
[A] Infomani[G]ac[D] You [G]will get [A]yours
I [G]will get [A]mine. So get in
[G]line, the frequency is fine
Outro: D Bm D Bm G D Bm D Bm G Bb D Bm D Bm G D(hold)
Guitar 2:
[D] [Bm] [D] [Bm]  
 
 e|---2-3-2-0-|-----------|---2-3-2-0-|----------|
 B|-----------|---2-3-2-0-|-----------|--2-3-2-0-|
 G|-----------|-----------|-----------|----------|
 D|-0---------|-----------|-0---------|----------|
 A|-----------|-2---------|-----------|-2--------|
 E|-----------|-----------|-----------|----------|

[G]  
 
 e|----------------------|
 B|-----0----------0-----|
 G|---2---2------2---2---|
 D|---------0----------0-|
 A|----------------------|
 E|-3----------3---------|

[D] [Bm] [D] [Bm]  
 
 e|---2-3-2-0-|-----------|---2-3-2-0-|----------|
 B|-----------|---2-3-2-0-|-----------|--2-3-2-0-|
 G|-----------|-----------|-----------|----------|
 D|-0---------|-----------|-0---------|----------|
 A|-----------|-2---------|-----------|-2--------|
 E|-----------|-----------|-----------|----------|

[G] [Bb]  
 
 e|--------------------|---|
 B|-----0----------0---|---|
 G|---2---2------2---2-|---|
 D|---------0----------|-0-|
 A|--------------------|---|
 E|-3----------3-------|---|

[D] [Bm] [D] [Bm]  
 
 e|---2-3-2-0-|-----------|---2-3-2-0-|----------|
 B|-----------|---2-3-2-0-|-----------|--2-3-2-0-|
 G|-----------|-----------|-----------|----------|
 D|-0---------|-----------|-0---------|----------|
 A|-----------|-2---------|-----------|-2--------|
 E|-----------|-----------|-----------|----------|

[G] [D]  
 
 e|----------------------|---|
 B|-----0----------0-----|---|
 G|---2---2------2---2---|---|
 D|---------0----------0-|-0-|
 A|----------------------|---|
 E|-3----------3---------|---|


Important: The song above is NOT stored on the Chordie server. The original song is hosted at www.azchords.com. Chordie works as a search engine and provides on-the-fly formatting. Chordie does not index songs against artists'/composers' will. To remove this song please click here.

Text color:
Chord color:
Chord grids: 
Font size:    
Page size: 

A Bb Bm D D/F# F#m G
Rate #1 of 3 versions

Jango Player

Login - add to songbook

SHARE PAGE  



You need to log in to post comments