Guitar Tabs, Chords and Lyrics
Server problems seems to be fixed. Chordie has been experiencing problems with songs disappearing. These issues now seems to be fixed, but still verifying the fix. If you find anything strange, please email admin@chordie.com.


Adrian  Jewel


for his version of the tab, if you look at
them (it's at the end of this file) you won't
see much of a similarity so don't say I just cut
and pasted.
Hey, don't be too critical... this is my first tab :) .
L = play this note lightly.
S = strum
H = hammer
Repeat
[C(add] [9)] L [C] L L [Cmaj7] L [C] L
 
 E-----------0------------3-------------0--------0--------
 B-----3-------3---1--------------0-------0--1-----1------
 G---------0-----------0-----0------0-----------0--0------
 D--------------------------------------------------------
 A-----3-----------3--------------3----------3------------
 E--------------------------------------------------------

The chorus seems to be based around variations of C and G.
You may want to arpeggiate the chords something like this.
[C] [Cmaj7] [G] [C] [Cmaj7] [G] 
 
 E------------------------------------------------------------------
 B------------0--------------0-----------------0-------------0------
 G------0---0---0----------0---0---------0---0---0---------0---0----
 D----2---2-------2------0-------0-----2---2-------2-----0-------0--
 A--3------------------2-----------2-3-----------------2-----------2
 E-------------------3-------------------------------3--------------

OR THIS IS ANOTHER OPTION
[C] [Cmaj7] [G] [C] [Cmaj7] [G] 
[B]  
 
 E-------------------------3---3-----------------------------3------
 B------------0----------01--0-----------------0---------0-----0----
 G------0---0---0------------------------0---0---0---------0--------
 D----2---2-------2--------------0-----2---2-------2-------------0--
 A--3------------------2-----------2-3-----------------2-----------2
 E-------------------3-------------------------------3--------------

Cmaj7 G Gsus4?
L L
 
 E------------------------------------------3-------------3-
 B--0-------------0-----------------------1-------------1---
 G----0-------------0-------------------0-------------0-----
 D------2-------------0-------------------------------------
 A--3-----3-------------------------------------------------
 E----------------3------------------3-------------3--------

Oh A-dri-an come out and play.
S [Em]S
 
 E---0------------------------------------------------------
 B---0------------------------------------------------------
 G-0-0------------------------------------------------------
 D-0-2------------------------------------------------------
 A---2------------------------------------------------------
 E---0------------------------------------------------------

I've added a few notes in some places to go along with the melody.
Otherwise it sounds too bare. I haven't done the bridge yet. Feel
free to e-mail suggestions to me.
Enjoy :)

Important: The song above is NOT stored on the Chordie server. The original song is hosted at www.azchords.com. Chordie works as a search engine and provides on-the-fly formatting. Chordie does not index songs against artists'/composers' will. To remove this song please click here.

Text color:
Chord color:
Chord grids: 
Font size:    
Page size: 

B C Cmaj7 Em G
Rate #1 of 13 versions

Jango Player

Login - add to songbook

SHARE PAGE  




You need to log in to post comments