Guitar Tabs, Chords and Lyrics
Server problems seems to be fixed. Chordie has been experiencing problems with songs disappearing. These issues now seems to be fixed, but still verifying the fix. If you find anything strange, please email admin@chordie.com.


Don't  Jewel

Singer: Jewel
Introduction:
[G] [G/B] [G] [G] [F#] [E]  
 
 |---------3----------------------3----------------------3------------
 |------3---------------------3----------------------3----------------
 |----0--------0------------0---------0----------0---------0----------
 |--------------------------------------------------------------------
 |-----------------------2--------------------------------------------
 |3-------------------------------------------3---------------3---2--0

[D]  
[B]  
 
 |2--------2-----------0---------0---------0^2--------2--------3---2-0
 |------3----------------------3--------------------3-----------------
 |----2---------2------------2--------2----------2----------2---------
 |0--------------------0-------------------0--------------------------
 |--------------------------------------------------------------------
 |--------------------------------------------------------------------

[C]  
 
 |--------0-----------------------0----------H-----------0------------
 |2-----2--------------0-------0------------0^1------1---------3--1--0
 |---0---------0-------------0--------0-----------0---------0---------
 |--------------------------------------------------------------------
 |3--------------------3--------------------3-------------------------
 |--------------------------------------------------------------------

[G] [G/B] [G] [G/B]  
 
 |--------3----------------3--------------3----------------3----------
 |-----3----------------3---------------3---------------3-------------
 |--0--------0-------0--------0-------0------0-------0--------0-------
 |--------------------------------------------------------------------
 |----------------2-------------------------------2-------------------
 |3-------------------------------3-----------------------------------

>_Slowing
down_____>_______>____>_____
The rest is the same but you must slow down when you start singing.
Maybe you must listen to the song to find out how to control not just
the speed but the volume too, because those two aspects give that
special touch to the piece.The technical aspects are not so
complicated as the interpretation and feeling while playing and
singing this song.
DON'T (chord progression):
[G] [D] [C] 
Str. Ft. Ft. Ft.
6 G (3) E (0) E (0) Str.=string
5 B (2) A (0) C (3) Ft.=fret
4 D (0) D (0) E (2)
3 G (0) A (2) G (0)
[2]1 [D]G [(3)](3) [D]F#[(3)](2) [C]E [(1)](0)
(just bass 6str)
[G]Don't [G/B]walk too [G]close [G] D[F#]on'[E]t [D]breathe so soft Don't[C] talk so
sweet
Don't [G]si[G/B]ng [G] D[G]on[F#]'t [E] la[D]y oh so n[C]ear [G] P[G/B]leas[G]e, do[G]n't l[F#]et m[E]e [D]fall in
love with y[G]ou[G/B] aga[G]in
(just bass 6str)
[G]Please let [G/B]me for[G]get a[G]ll t[F#]hose s[E]weet [D]smiles all of the [C]passion
(just bass 6str)
all of the [G]heat, the [G/B]peace, the[G] pain a[G]ll t[F#]hose b[E]lue [D]skies
where your words were my f[G]ree[G/B]dom [G]
(just bass 6str)
[G]Pl[G/B]ease[G], [G]don't[F#] let [E]me [D]fall in love with you[G] ag[G/B]ain[G]
(just bass 6str)
[G]Too many times[G/B] [G] [G]I've[F#] cared[E] too [D]much I stood on the [C]edge
(just bass 6str)
and saw that you [G]held m[B/G]y ha[G]nd and kn[G]owi[F#]ng t[E]oo w[D]ell
I couldn't hide from those [C]eyes [G]Pl[G/B]ease[G], d[G]on't [F#]let [E]me [D]fall
(just bass 6str)
[G]Don't l[F#]et [E]me fa[D]ll in love with you a[G]gai[G/B]n[G]

Important: The song above is NOT stored on the Chordie server. The original song is hosted at www.azchords.com. Chordie works as a search engine and provides on-the-fly formatting. Chordie does not index songs against artists'/composers' will. To remove this song please click here.

Text color:
Chord color:
Chord grids: 
Font size:    
Page size: 

B B/G C D E F# G G/B
Rate #2 of 3 versions

Jango Player

Login - add to songbook

SHARE PAGE  



You need to log in to post comments