Guitar Tabs, Chords and Lyrics
Major upgrade!! After one year development the new version of Chordie is now online! Please give feedback.


Little Sister  Jewel

[Intro - repeats tbrougbout] 
[D/E] [D]  
 
 e|----------2-----------0h2----------2h3------------|----------2-----------0h2----------2h3------------|
 B|----3-----------3----------3--------------3-----3-|----3-----------3----------3--------------3-----3-|
 G|--------------------------------------------------|--------------------------------------------------|
 D|-2-----2-----2-----2-----------2-------------2----|-0-----0-----0-----0-----------0-------------0----|
 A|--------------------------------------------------|--------------------------------------------------|
 E|--------------------------------------------------|--------------------------------------------------|

[Cmaj7] [G]  
 
 e|----------------------0---------------------------|----------3-----------3-----------3---------------|
 B|----0-----------0-----------0-----0---------------|--------------------------------------------------|
 G|----------0-------------------------------0-----0-|----0-----------0-----------0-----------0-----0---|
 D|---------------------------------------------2----|--------------------------------------------------|
 A|-3-----3-----------3-----------3------------------|--------------------------------------------------|
 E|--------------------------------------------------|-3-----3-----------3-----------3-----------3------|

[Verse] 
Hey little sister I heard you went to Mr. So and So, knock knock knockin on his door
[D/E] [D]  
 
 e|----------2-----------0h2----------2h3------------|----------2-----------0h2----------2h3------------|
 B|----3-----------3----------3--------------3-----3-|----3-----------3----------3--------------3-----3-|
 G|--------------------------------------------------|--------------------------------------------------|
 D|-2-----2-----2-----2-----------2-------------2----|-0-----0-----0-----0-----------0-------------0----|
 A|--------------------------------------------------|--------------------------------------------------|
 E|--------------------------------------------------|--------------------------------------------------|

Again last night, said you needed it bad- You know that ain't right
[Cmaj7] [G]  
 
 e|----------------------0---------------------------|----------3-----------3-----------3---------------|
 B|----0-----------0-----------0-----0---------------|--------------------------------------------------|
 G|----------0-------------------------------0-----0-|----0-----------0-----------0-----------0-----0---|
 D|---------------------------------------------2----|--------------------------------------------------|
 A|-3-----3-----------3-----------3------------------|--------------------------------------------------|
 E|--------------------------------------------------|-3-----3-----------3-----------3-----------3------|

'Cause so many times you've come to me cry-crying Trying to stop. you said it hurts so bad
[D/E] [D]  
 
 e|----------2-----------0h2----------2h3------------|----------2-----------0h2----------2h3------------|
 B|----3-----------3----------3--------------3-----3-|----3-----------3----------3--------------3-----3-|
 G|--------------------------------------------------|--------------------------------------------------|
 D|-2-----2-----2-----2-----------2-------------2----|-0-----0-----0-----0-----------0-------------0----|
 A|--------------------------------------------------|--------------------------------------------------|
 E|--------------------------------------------------|--------------------------------------------------|

But please don't let you But please don't let you
[Cmaj7] [G]  
 
 e|----------------------0---------------------------|----------3-----------3-----------3---------------|
 B|----0-----------0-----------0-----0---------------|--------------------------------------------------|
 G|----------0-------------------------------0-----0-|----0-----------0-----------0-----------0-----0---|
 D|---------------------------------------------2----|--------------------------------------------------|
 A|-3-----3-----------3-----------3------------------|--------------------------------------------------|
 E|--------------------------------------------------|-3-----3-----------3-----------3-----------3------|

[Verse] 
My little sister is a Zombie in a body With no soul in a role she has learned to play
[D/E] [D]  
 
 e|----------2-----------0h2----------2h3------------|----------2-----------0h2----------2h3------------|
 B|----3-----------3----------3--------------3-----3-|----3-----------3----------3--------------3-----3-|
 G|--------------------------------------------------|--------------------------------------------------|
 D|-2-----2-----2-----2-----------2-------------2----|-0-----0-----0-----0-----------0-------------0----|
 A|--------------------------------------------------|--------------------------------------------------|
 E|--------------------------------------------------|--------------------------------------------------|

In a world today where nothing else matters But it matters, we gotta start feeding our souls
[Cmaj7] [G]  
 
 e|----------------------0---------------------------|----------3-----------3-----------3---------------|
 B|----0-----------0-----------0-----0---------------|--------------------------------------------------|
 G|----------0-------------------------------0-----0-|----0-----------0-----------0-----------0-----0---|
 D|---------------------------------------------2----|--------------------------------------------------|
 A|-3-----3-----------3-----------3------------------|--------------------------------------------------|
 E|--------------------------------------------------|-3-----3-----------3-----------3-----------3------|

Not our addiction or afflictions of pain To avoid the same questions we must
[D/E] [D]  
 
 e|----------2-----------0h2----------2h3------------|----------2-----------0h2----------2h3------------|
 B|----3-----------3----------3--------------3-----3-|----3-----------3----------3--------------3-----3-|
 G|--------------------------------------------------|--------------------------------------------------|
 D|-2-----2-----2-----2-----------2-------------2----|-0-----0-----0-----0-----------0-------------0----|
 A|--------------------------------------------------|--------------------------------------------------|
 E|--------------------------------------------------|--------------------------------------------------|

Ask ourselves to get any answers We gotta start feeding our souls
[Cmaj7] [G]  
 
 e|----------------------0---------------------------|----------3-----------3-----------3---------------|
 B|----0-----------0-----------0-----0---------------|--------------------------------------------------|
 G|----------0-------------------------------0-----0-|----0-----------0-----------0-----------0-----0---|
 D|---------------------------------------------2----|--------------------------------------------------|
 A|-3-----3-----------3-----------3------------------|--------------------------------------------------|
 E|--------------------------------------------------|-3-----3-----------3-----------3-----------3------|

[Verse] 
Have been lost to the millions with lots Who feed on addiction selling pills and what's hot
[D/E] [D]  
 
 e|----------2-----------0h2----------2h3------------|----------2-----------0h2----------2h3------------|
 B|----3-----------3----------3--------------3-----3-|----3-----------3----------3--------------3-----3-|
 G|--------------------------------------------------|--------------------------------------------------|
 D|-2-----2-----2-----2-----------2-------------2----|-0-----0-----0-----0-----------0-------------0----|
 A|--------------------------------------------------|--------------------------------------------------|
 E|--------------------------------------------------|--------------------------------------------------|

I wish I could save her from all their delusions All the confusion
[Cmaj7] [G]  
 
 e|----------------------0---------------------------|----------3-----------3-----------3---------------|
 B|----0-----------0-----------0-----0---------------|--------------------------------------------------|
 G|----------0-------------------------------0-----0-|----0-----------0-----------0-----------0-----0---|
 D|---------------------------------------------2----|--------------------------------------------------|
 A|-3-----3-----------3-----------3------------------|--------------------------------------------------|
 E|--------------------------------------------------|-3-----3-----------3-----------3-----------3------|

Of a nation that starves for salvation But clothing is the closest to approximation
[D/E] [D]  
 
 e|----------2-----------0h2----------2h3------------|----------2-----------0h2----------2h3------------|
 B|----3-----------3----------3--------------3-----3-|----3-----------3----------3--------------3-----3-|
 G|--------------------------------------------------|--------------------------------------------------|
 D|-2-----2-----2-----2-----------2-------------2----|-0-----0-----0-----0-----------0-------------0----|
 A|--------------------------------------------------|--------------------------------------------------|
 E|--------------------------------------------------|--------------------------------------------------|

To God and He only knows that drugs Are all we know of love
[Cmaj7] [G]  
 
 e|----------------------0---------------------------|----------3-----------3-----------3---------------|
 B|----0-----------0-----------0-----0---------------|--------------------------------------------------|
 G|----------0-------------------------------0-----0-|----0-----------0-----------0-----------0-----0---|
 D|---------------------------------------------2----|--------------------------------------------------|
 A|-3-----3-----------3-----------3------------------|--------------------------------------------------|
 E|--------------------------------------------------|-3-----3-----------3-----------3-----------3------|

[Bridge] 
Eee - Eee
[D/E] [D]  
 
 e|----------2-----------0h2----------2h3------------|----------2-----------0h2----------2h3------------|
 B|----3-----------3----------3--------------3-----3-|----3-----------3----------3--------------3-----3-|
 G|--------------------------------------------------|--------------------------------------------------|
 D|-2-----2-----2-----2-----------2-------------2----|-0-----0-----0-----0-----------0-------------0----|
 A|--------------------------------------------------|--------------------------------------------------|
 E|--------------------------------------------------|--------------------------------------------------|

Eee - Eee
[Cmaj7] [G]  
 
 e|----------------------0---------------------------|----------3-----------3-----------3---------------|
 B|----0-----------0-----------0-----0---------------|--------------------------------------------------|
 G|----------0-------------------------------0-----0-|----0-----------0-----------0-----------0-----0---|
 D|---------------------------------------------2----|--------------------------------------------------|
 A|-3-----3-----------3-----------3------------------|--------------------------------------------------|
 E|--------------------------------------------------|-3-----3-----------3-----------3-----------3------|

[Verse] 
Every day we starve while we eat white bread And beer instead of a hadshake or hug
[D/E] [D]  
 
 e|----------2-----------0h2----------2h3------------|----------2-----------0h2----------2h3------------|
 B|----3-----------3----------3--------------3-----3-|----3-----------3----------3--------------3-----3-|
 G|--------------------------------------------------|--------------------------------------------------|
 D|-2-----2-----2-----2-----------2-------------2----|-0-----0-----0-----0-----------0-------------0----|
 A|--------------------------------------------------|--------------------------------------------------|
 E|--------------------------------------------------|--------------------------------------------------|

We spill the pills and sweep them Under the rug
[Cmaj7] [G]  
 
 e|----------------------0---------------------------|----------3-----------3-----------3---------------|
 B|----0-----------0-----------0-----0---------------|--------------------------------------------------|
 G|----------0-------------------------------0-----0-|----0-----------0-----------0-----------0-----0---|
 D|---------------------------------------------2----|--------------------------------------------------|
 A|-3-----3-----------3-----------3------------------|--------------------------------------------------|
 E|--------------------------------------------------|-3-----3-----------3-----------3-----------3------|

My little sister is a Zombie in a body With no soul in a role she has learned to play
[D/E] [D]  
 
 e|----------2-----------0h2----------2h3------------|----------2-----------0h2----------2h3------------|
 B|----3-----------3----------3--------------3-----3-|----3-----------3----------3--------------3-----3-|
 G|--------------------------------------------------|--------------------------------------------------|
 D|-2-----2-----2-----2-----------2-------------2----|-0-----0-----0-----0-----------0-------------0----|
 A|--------------------------------------------------|--------------------------------------------------|
 E|--------------------------------------------------|--------------------------------------------------|

In a world today where nothing else matters But it matters, we gotta start feeding our souls
[Cmaj7] [G]  
 
 e|----------------------0---------------------------|----------3-----------3-----------3---------------|
 B|----0-----------0-----------0-----0---------------|--------------------------------------------------|
 G|----------0-------------------------------0-----0-|----0-----------0-----------0-----------0-----0---|
 D|---------------------------------------------2----|--------------------------------------------------|
 A|-3-----3-----------3-----------3------------------|--------------------------------------------------|
 E|--------------------------------------------------|-3-----3-----------3-----------3-----------3------|

[Bridge] 
Souls -
[D/E] [D]  
 
 e|----------2-----------0h2----------2h3------------|----------2-----------0h2----------2h3------------|
 B|----3-----------3----------3--------------3-----3-|----3-----------3----------3--------------3-----3-|
 G|--------------------------------------------------|--------------------------------------------------|
 D|-2-----2-----2-----2-----------2-------------2----|-0-----0-----0-----0-----------0-------------0----|
 A|--------------------------------------------------|--------------------------------------------------|
 E|--------------------------------------------------|--------------------------------------------------|

[Da] [da] [da] [Da] [da] [da] 
[Cmaj7] [G]  
 
 e|----------------------0---------------------------|----------3-----------3-----------3---------------|
 B|----0-----------0-----------0-----0---------------|--------------------------------------------------|
 G|----------0-------------------------------0-----0-|----0-----------0-----------0-----------0-----0---|
 D|---------------------------------------------2----|--------------------------------------------------|
 A|-3-----3-----------3-----------3------------------|--------------------------------------------------|
 E|--------------------------------------------------|-3-----3-----------3-----------3-----------3------|

[Verse] 
Hey little sister I heard you went to Mr. So and So, knock knock knockin on his door
[D/E] [D]  
 
 e|----------2-----------0h2----------2h3------------|----------2-----------0h2----------2h3------------|
 B|----3-----------3----------3--------------3-----3-|----3-----------3----------3--------------3-----3-|
 G|--------------------------------------------------|--------------------------------------------------|
 D|-2-----2-----2-----2-----------2-------------2----|-0-----0-----0-----0-----------0-------------0----|
 A|--------------------------------------------------|--------------------------------------------------|
 E|--------------------------------------------------|--------------------------------------------------|

Again last night, said you needed more...
[Cmaj7] [G]  
 
 e|----------------------0---------------------------|----------3---------------------------------------|
 B|----0-----------0-----------0-----0---------------|--------------------------------------------------|
 G|----------0-------------------------------0-----0-|----0-----------0-----3---------------------------|
 D|---------------------------------------------2----|-------------------------2------------------------|
 A|-3-----3-----------3-----------3------------------|--------------------------------------------------|
 E|--------------------------------------------------|-3-----3-----------3------------------------------|


Important: The song above is NOT stored on the Chordie server. The original song is hosted at www.azchords.com. Chordie works as a search engine and provides on-the-fly formatting. Chordie does not index songs against artists'/composers' will. To remove this song please click here.

Text color:
Chord color:
Chord grids: 
Font size:    
Page size: 

Cmaj7 D D/E Da G
Rate #1 of 7 versions

Jango Player

Login - add to songbook

SHARE PAGE  




You need to log in to post comments