Guitar Tabs, Chords and Lyrics
Major upgrade!! After one year development the new version of Chordie is now online! Please give feedback.


Love Used to Be  Jewel

INTRO:
[Cmaj7] [C/B]  
 
 e---------------------------------------------------------------------------
 B------------1------------------1----------------1------------------1-------
 G---------0----0-------------0----0-----------0-----0------------0-----0----
 D------2----------2--------2---------2------0----------0-------0----------0-
 A---------------------------------------------------------------------------
 E--0------------------0-----------------2------------------2----------------

[G]  
 
 e----------------------------------------------------------------------------
 B------------0-------------------0-----------------0------------------0------
 G---------0-----0-------------0-----0-----------0-----0------------0-----0---
 D------0----------0--------0----------0------0----------0-------0----------0-
 A----------------------------------------------------------------------------
 E--3-------------------3-----------------3------------------3----------------

VERSE:
[Cmaj7]Love used to be the [C/B]ruler
[G]From which you measured all
[Cmaj7]Love used to be the d[C/B]izzying height
[G]From which you wished to fall
[Cmaj7]Love used to be the white [C/B]and cozy apparition
[G]towering in your dreams
[Cmaj7]Love used to be [C/B]
[G]Love used to be
PICKING PATTERN AND CHORDS SAME AS ABOVE:
[Cmaj7]Love used to be the [C/B]horseshoe made of iron
[G]And always smiling up
[Cmaj7]And in your arms it [C/B]gathered all manner
[G]Of silky satin golden luck
[Cmaj7]Love used to be the [C/B]pyramid and on top
[G]Its eye that always sees
[Cmaj7]Love used to be[C/B]
Love [G]used to be
CHORUS:
Dig a [Am]six foot [C]hole
Inside my c[D]hest
[Am]Heart like a grave [C]stone
Laid down to [D]rest
Good-[Am]bye[C] [G]love
[D]Am[G]en
VERSE:
[Cmaj7]Love used to be a [C/B]sigh like petals
[G]Gently falling down
[Cmaj7]From the flower of my l[C/B]over's
Half [G]open rose bud mouth
[Cmaj7]Love used to be the [C/B]thirst, oh and the quenching
[G]The question in need of answering
[Cmaj7]Love used to be[C/B]
[G]Love used to be
[Cmaj7]Love used to be hope[C/B] unflinching
[G]A dare that believed it must
[Cmaj7]Love used to be the [C/B]heady drunken feeling of
[G]Flesh heavy with lust
[Cmaj7]Love used to be a ph[C/B]otograph of the future
taken by [G]one mind four eyes could see
[Cmaj7]Love used to be[C/B]
[G]Love used to be
CHORUS:
Dig a [Am]six foot [C]hole
Inside my c[D]hest
[Am]Heart like a grave [C]stone
Laid down to [D]rest
Good-[Am]bye[C] [G]love
[D]Am[G]en
VERSE:
[Cmaj7]Love used to be a [C/B]miracle
[G]The proof that God exists
[Cmaj7]As I doubled our i[C/B]mage, immortality delivered
[G]by the double helix
[Cmaj7]Love used to be the b[C/B]edrock you built a life upon
[G]Into the future reaching
[Cmaj7]It used to be what [C/B]woke you each day
And [G]eased me into sleeping
[Cmaj7]Love used to be my [C/B]compass
[G]But now I'm alone and I'm adrift and I'm lost at sea
'Cause love [Cmaj7]used to be[C/B]
[G]Love used to be
[Cmaj7]Love used to be[C/B]
Love [G]used to be

Important: The song above is NOT stored on the Chordie server. The original song is hosted at www.azchords.com. Chordie works as a search engine and provides on-the-fly formatting. Chordie does not index songs against artists'/composers' will. To remove this song please click here.

Text color:
Chord color:
Chord grids: 
Font size:    
Page size: 

Am C C/B Cmaj7 D G
Rate #1 of 1 versions

Login - add to songbook

SHARE PAGE  




You need to log in to post comments