Guitar Tabs, Chords and Lyrics
Server problems seems to be fixed. Chordie has been experiencing problems with songs disappearing. These issues now seems to be fixed, but still verifying the fix. If you find anything strange, please email admin@chordie.com.


Mexican Wrestler  Jill Sobule

-VERSE-
[G] [D] 
 
 E|-----------3----------------------|-----------2----------------------|
 B|--------------3-------------------|--------3-----3-------------------|
 G|------------------0---------------|-----2-----------2----------------|
 D|--------0-------------------------|--0-------------------------------|
 A|-----2----------------------------|----------------------------------|
 E|--3-------------------------------|----------------------------------|

[F] [C] 
 
 E|--------------1-------------------|-----------0----------------------|
 B|-----------1-----1----------------|--------------1-------------------|
 G|--------2-----------2-------------|--------0---------0---------------|
 D|-----3----------------------------|-----2----------------------------|
 A|----------------------------------|--3-------------------------------|
 E|----------------------------------|----------------------------------| X5

You really want me...
[G] [D] 
 
 E|-----------3----------------------|-----------2----------------------|
 B|--------------3-------------------|--------3-----3-------------------|
 G|------------------0---------------|-----2-----------2----------------|
 D|--------0-------------------------|--0-------------------------------|
 A|-----2----------------------------|----------------------------------|
 E|--3-------------------------------|----------------------------------|

[F] [F] 
 
 E|--------------1-------------------|-------------1--------------------|
 B|-----------1-----1----------------|-----------1----1-----------------|
 G|--------2-----------2-------------|--------2----------2--------------|
 D|-----3----------------------------|-----3----------------------------|
 A|----------------------------------|----------------------------------|
 E|----------------------------------|----------------------------------|

-PRE CHORUS-
[A] [A] 
 
 E|-------------0--------------------|-----------0---------------------|
 B|----------------1-----------------|--------------1------------------|
 G|----------2---------2-------------|--------2--------2---------------|
 D|------2---------------------------|-----2---------------------------|
 A|--0-------------------------------|--0------------------------------|
 E|----------------------------------|---------------------------------|

[D] [D] 
 
 E|--------------2-------------------|--------------2-------------------|
 B|-----------3-----3----------------|-----------3-----3----------------|
 G|--------2-----------2-------------|--------2-----------2-------------|
 D|-----0----------------------------|-----0----------------------------|
 A|----------------------------------|----------------------------------|
 E|----------------------------------|----------------------------------|

[A] [A] 
 
 E|-------------0--------------------|-----------0---------------------|
 B|----------------1-----------------|--------------1------------------|
 G|----------2---------2-------------|--------2--------2---------------|
 D|------2---------------------------|-----2---------------------------|
 A|--0-------------------------------|--0------------------------------|
 E|----------------------------------|---------------------------------|

[D/E] [D] 
 
 E|------------0---------------------|----------------------------------|
 B|---------3-----3------------------|----------------------------------|
 G|-----2------------2---------------|----------------------------------|
 D|--0-------------------------------|--0-------------------------------|
 A|----------------------------------|----------------------------------|
 E|----------------------------------|----------------------------------|

-CHORUS-
[G] [D] 
 
 E|-----------3----------------------|-----------2----------------------|
 B|--------------3-------------------|--------3-----3-------------------|
 G|------------------0---------------|-----2-----------2----------------|
 D|--------0-------------------------|--0-------------------------------|
 A|-----2----------------------------|----------------------------------|
 E|--3-------------------------------|----------------------------------|

[C] [C] 
 
 E|-----------0----------------------|-----------0----------------------|
 B|--------------1-------------------|--------------1-------------------|
 G|--------0--------0----------------|--------0---------0---------------|
 D|-----2----------------------------|-----2----------------------------|
 A|--3-------------------------------|--3-------------------------------|
 E|----------------------------------|----------------------------------| 

Sometimes I wish that I was an angel
A fallen angel who visits your dreams
And in those dreams I'd blow you a message that says
You really want me
Sometimes I wish that I was a wrestler a Mexican wrestler
In a red vinyl mask and I might grab you and body slam you
And maybe cause physical harm
-PRE CHORUS-
When we would land I might take pity on you
I could crack all your ribs but I cant break your heart
-CHORUS-
You will never love me
And this I cant forgive
That you will never love me
As long as I will live
Sometimes I wish that I was a beauty
A beautiful girl who was still twenty one
And I'd turn your head and your friends would love me
And I could afford to play hard to get
We'd go to parties and you'd show me off
Then I'd go home with someone else
You will never love me
And this I cant forgive
And It will always bug me
As long as I will live
You will never love me
Why should I even care
It's not that your so special
You're just the cross I bear
You will never love me
You will never love me
And this I cant forgive
And it will always bug me
As long as I will live

Important: The song above is NOT stored on the Chordie server. The original song is hosted at www.azchords.com. Chordie works as a search engine and provides on-the-fly formatting. Chordie does not index songs against artists'/composers' will. To remove this song please click here.

Text color:
Chord color:
Chord grids: 
Font size:    
Page size: 

A C D D/E F G
Rate #1 of 1 versions

Login - add to songbook

SHARE PAGE  




You need to log in to post comments