Guitar Tabs, Chords and Lyrics
Server problems seems to be fixed. Chordie has been experiencing problems with songs disappearing. These issues now seems to be fixed, but still verifying the fix. If you find anything strange, please email admin@chordie.com.


Vrbana Bridge  Jill Sobule

Tuning:Standard EADGBe
D xx0232
Cadd9 x32033
G 320033
Fmaj7 1x2210
A x02220
Asus4 x02230
[F]E [133211]022100
G6 320000
Intro
[D] [Cadd9] [G] [D] [Cadd9] [G]  
 
 e|----2------2-----3----3--------2----2-----3----3-----------------------------|
 B|-3--3--3-3--3-----3----3----3--3-3---3-----3----3----3-----------------------|
 G|-2--2--2-2---2-----0----0---2--2-2----2-----0----0---2-----------------------|
 D|-0-----0-0------------------0----0-------------------0-----------------------|
 A|----------------3------------------------3-----------------------------------|
 E|---------------------3------------------------3------------------------------|

|
 
 e|-----------------------------------------------------------------------------|
 B|-----------------------------------------------------------------------------|
 G|----------------2-0----------------------2-0---------------------------------|
 D|-------0-2-4---------0--2-2/4-------0-2-4-----0------------------------------|
 A|-------------------------------------------------\1-0------------------------|
 E|-----------------------------------------------------------------------------|

[D] [Cadd9] [G] [Fmaj7] [G6] [A] [Asus4]  
 
 e|----2------2-----3----3----0---0----0---0------------------------------------|
 B|----3--3-3--3-----3----3----1---1----0---0--2--2-2-2-2--2-2-2--3--3-3-3--3---|
 G|----2--2-2---2-----0----0----2---2----0---0-2--2-2-2-2--2-2-2--2--2-2-2--2---|
 D|-------0-0----------------------------------2--2-2-2-2--2-2-2--2--2-2-2--2---|
 A|----------------3---------------------------0--0-0-0-0--0-0-0--0--0-0-0--0---|
 E|---------------------3----1---1----3---3-------------------------------------|

|
 
 e|-----------------------------------------------------------------------------|
 B|-----------------------------------------------------------------------------|
 G|----------------2-0----------------------------------------------------------|
 D|-------0-2-4---------0--2-2/3----0-2---0-------------------------------------|
 A|------------------------------3-------------4--------------------------------|
 E|-----------------------------------------------------------------------------|

[D]They stood by the window
[D]And watched the old church
[F]Burn for the second time
[E]The light from the fire
[E]Made her glow like an angel
[G]As she pulled him down and smiled
[D]They lay on the bed
[D]There were shouts all around
[F]They could shut the whole war out
[E]With the squeak of the springs
[E]And tomorrows dreams
[G]And the beating of their hearts
[D]He would lay [Cadd9]down his a[G]rms down for h[D]er
[D]She would for[Cadd9]give his br[G]other's cr[D]ime
[D]They would do [Cadd9]anythin[G]g
[Fmaj7]To make it past [G6]Vrbana [A]Bridge
[D]Well he looked up to Jesus
[D]And she looked to the east
[F]Where the sun was soon to rise
[E]She asked for Allah's blessings
[G]To keep them both alive
[D]They had friends in high places
[D]Who could do them a favor
[F]Turn a blind eye
[E]They'd seen so much hate
[E]And death every day
[G]"Let's just let those two walk by"
[D]They would lay [Cadd9]down their ar[G]ms down for he[D]r
[D]They would f[Cadd9]orgive his b[G]rother's c[D]rime
[D]Just for one [Cadd9]moment th[G]ey would
[Fmaj7]Let them pass [G6]Vrbana B[A]ridge
[D]Through a crack in the wall
[D]Of a sandbagged building
[F]The soldier saw them fall
[E]He said "If love was their only armor
[G]It did no good at all
[D]They lay for six days
[D]In a final embrace
[F]They had shut the whole war out
[E]The soldier blames the other side
[G]But even he has his doubts
[D]He would lay [Cadd9]down his ar[G]ms down for he[D]r
[D]He would for[Cadd9]give his br[G]other's cr[D]ime
[D]He would lay [Cadd9]down his a[G]rms
[Fmaj7]To let them pass V[G6]rbana [A]Bridge

Important: The song above is NOT stored on the Chordie server. The original song is hosted at www.azchords.com. Chordie works as a search engine and provides on-the-fly formatting. Chordie does not index songs against artists'/composers' will. To remove this song please click here.

Text color:
Chord color:
Chord grids: 
Font size:    
Page size: 

A Asus4 Cadd9 D E F Fmaj7 G G6
Rate #1 of 1 versions

Jango Player

Login - add to songbook

SHARE PAGE  




You need to log in to post comments