Guitar Tabs, Chords and Lyrics
Login is temporarily disabled for some users. Do not panic. Will be back in an hour or two. DO NOT REREGISTER!!


I'll Make Love to You Anytime  J.J. Cale

Intro
Q=142
[A] [C] [D] [A] [C] [D] 
[4/4] Gtr I
Q Q E E E E +Q. E E E E E Q Q E E E E +Q. E E E E E
 
 ||----------------|-----------------|---------------|------------------||
 ||o-2--2--5-5---7-|-(7)-------------|-2--2--5-5---7-|-(7)-------------o||
 ||--2--2--5-5---7-|-(7)-------------|-2--2--5-5---7-|-(7)--------------||
 ||--2--2--5-5---7-|-(7)---------5---|-2--2--5-5---7-|-(7)---------5----||
 ||o-0--0--3-3---5-|-(5)---5-7-7---7-|-0--0--3-3---5-|-(5)---5-7-7---7-o||
 ||----------------|-----------------|---------------|------------------||

1st - 3rd Verses
$
[A]Q Q [C]E E E [D]E E E E [C]E E E Q [A]Q Q [C]E E E [C]E +Q. E E E E E
 
 ||----------------|----------------|---------------|------------------|
 ||o-2--2--5-5---7-|---7---5-5-5-5--|-2--2--5-5---7-|-(7)--------------|
 ||--2--2--5-5---7-|---7---5-5-5-5--|-2--2--5-5---7-|-(7)--------------|
 ||--2--2--5-5---7-|---7---5-5-5-5--|-2--2--5-5---7-|-(7)---------5----|
 ||o-0--0--3-3---5-|---5---3-3-3-3--|-0--0--3-3---5-|-(5)---5-7-7---7--|
 ||----------------|----------------|---------------|------------------|

[A]Q Q [C]E E E [D]E E E E [C]E E E Q [A]Q Q [C]E E E [D]E +Q. E E E E E
 
 |---------------|----------------|---------------|-----------------||
 |-2--2--5-5---7-|---7---5-5-5-5--|-2--2--5-5---7-|-(7)-------------||
 |-2--2--5-5---7-|---7---5-5-5-5--|-2--2--5-5---7-|-(7)-------------||
 |-2--2--5-5---7-|---7---5-5-5-5--|-2--2--5-5---7-|-(7)---------5---||
 |-0--0--3-3---5-|---5---3-3-3-3--|-0--0--3-3---5-|-(5)---5-7-7---7-||
 |---------------|----------------|---------------|-----------------||

Chorus
[C]Q. E +H [D]Q. E +H [C]Q. E +H [D]Q. E +H
 
 |---------------|---------------|---------------|---------------|
 |-5----5-(5)----|-7----7-(7)----|-5----5-(5)----|-7----7-(7)----|
 |-5----5-(5)----|-7----7-(7)----|-5----5-(5)----|-7----7-(7)----|
 |-5----5-(5)----|-7----7-(7)----|-5----5-(5)----|-7----7-(7)----|
 |-3----3-(3)----|-5----5-(5)----|-3----3-(3)----|-5----5-(5)----|
 |---------------|---------------|---------------|---------------|

To Coda
[A]Q Q [C]E E E [D]E E E E [C]E E E Q [A]Q Q [C]E E E [D]E +Q. E E E E E
 
 |---------------|----------------|---------------|-------------------|
 |-2--2--5-5---7-|---7---5-5-5-5--|-2--2--5-5---7-|-(7)---------------|
 |-2--2--5-5---7-|---7---5-5-5-5--|-2--2--5-5---7-|-(7)---------------|
 |-2--2--5-5---7-|---7---5-5-5-5--|-2--2--5-5---7-|-(7)---------5-----|
 |-0--0--3-3---5-|---5---3-3-3-3--|-0--0--3-3---5-|-(5)---5-7-7---7---|
 |---------------|----------------|---------------|-------------------|

Interlude
1. 2.
Q Q E E E E +Q. E E E E E [D]E [C]E [D]Q a H
 
 |---------------|------------------||---------------|
 |-2--2--5-5---7-|-(7)-------------o||-7s5s7s=2------|
 |-2--2--5-5---7-|-(7)--------------||-7s5s7s=2------|
 |-2--2--5-5---7-|-(7)---------5----||-7s5s7s=2------|
 |-0--0--3-3---5-|-(5)---5-7-7---7-o||-5s3s5s=0------|
 |---------------|------------------||---------------|

[D]E [C]E [D]Q a H [D]E [C]E [D]Q a H [D]E [C]E [D]Q a H
 
 |---------------|---------------|---------------||
 |-7s5s7s=2------|-7s5s7s=2------|-7s5s7s=2------||
 |-7s5s7s=2------|-7s5s7s=2------|-7s5s7s=2------||
 |-7s5s7s=2------|-7s5s7s=2------|-7s5s7s=2------||
 |-5s3s5s=0------|-5s3s5s=0------|-5s3s5s=0------||
 |---------------|---------------|---------------||

Guitar Solo
[A] Q Q [C] E E E [D]E E E E [C]E E E Q
 
 |-------------------------|--------------------------------|
 |--2----2------5---5----7-|---------7--------5--5--5--5----|
 |--2----2------5---5----7-|---------7--------5--5--5--5----|
 |--2----2------5---5----7-|---------7--------5--5--5--5----|
 |--0----0------3---3----5-|---------5--------3--3--3--3----|
 |-------------------------|--------------------------------|

|
| Gtr II
| E E E E +E E E E E +E Q E E E E
 
 |-------------------------|--------------------------------|
 |--------------------13---|-15b17-(15)-13b14---------------|
 |----12---14-(14)-14------|--------------------14-14-12----|
 |-14----------------------|-----------------------------14-|
 |-------------------------|--------------------------------|
 |-------------------------|--------------------------------|

[A]Q Q [C] E E E [D]E +Q. E E E E E
 
 |--------------------|------------------------|
 |-2---2-----5-5----7-|-(7)--------------------|
 |-2---2-----5-5----7-|-(7)--------------------|
 |-2---2-----5-5----7-|-(7)----------------5---|
 |-0---0-----3-3----5-|-(5)---------5-7-7----7-|
 |--------------------|------------------------|

|
| Q E E e E E e E +E Q E e E e
 
 |--------------------|------------------------|
 |--------------------|-------------------10---|
 |-------12---------0-|--9b11-(9)-9---7-7----7-|
 |----14----14-x-12---|------------------------|
 |--------------------|------------------------|
 |--------------------|------------------------|

[A]Q Q [C]E E E [D]E E E E [C]E E E Q
 
 |-----------------|------------------------|
 |-2---2---5-5---7-|---7---5-5------5---5---|
 |-2---2---5-5---7-|---7---5-5------5---5---|
 |-2---2---5-5---7-|---7---5-5------5---5---|
 |-0---0---3-3---5-|---5---3-3------3---3---|
 |-----------------|------------------------|

|
| E E E E E E E e e e e E E +E +Q
 
 |-----------------|------------------------|
 |-x-x-5-5-8-x---5-|-8-8-5---8b10==(8)r(8)--|
 |-----------------|------------------------|
 |-----------------|------------------------|
 |-----------------|------------------------|
 |-----------------|------------------------|

D.S. al Coda
[A]Q Q [C]E E E [D]E +Q. E E E E E
 
 |-----------------|-----------------------||
 |-2---2---5-5---7-|-(7)-------------------||
 |-2---2---5-5---7-|-(7)-------------------||
 |-2---2---5-5---7-|-(7)-------------5-----||
 |-0---0---3-3---5-|-(5)-------5-7-7---7---||
 |-----------------|-----------------------||

|
| PM PM
| E E E E E E E E E E E E E E E E
 
 |-----------------|-----------------------||
 |-5-5-8p5---5-----|-----------------------||
 |---------5-----4-|--7--5-7b8---7-5-7-5---||
 |-----------------|-----------------------||
 |-----------------|-----------------------||
 |-----------------|-----------------------||

Interlude
&
[D]E [C]E [D]Q a H [D]E [C]E [D]Q a H [D]E [C]E [D]Q a H [D]E [C]E [D]Q a H
 
 |---------------|---------------|---------------|---------------||
 |-7s5s7s=2------|-7s5s7s=2------|-7s5s7s=2------|-7s5s7s=2------||
 |-7s5s7s=2------|-7s5s7s=2------|-7s5s7s=2------|-7s5s7s=2------||
 |-7s5s7s=2------|-7s5s7s=2------|-7s5s7s=2------|-7s5s7s=2------||
 |-5s3s5s=0------|-5s3s5s=0------|-5s3s5s=0------|-5s3s5s=0------||
 |---------------|---------------|---------------|---------------||

Outro
[A]Q Q [C]E E E [D]E +Q. E E E E E [A]Q Q [C]E E E [D]E +Q. E E E E E 9x
 
 ||----------------|-----------------|---------------|-------------------||
 ||o-2--2--5-5---7-|-(7)-------------|-2--2--5-5---7-|-(7)--------------o||
 ||--2--2--5-5---7-|-(7)-------------|-2--2--5-5---7-|-(7)---------------||
 ||--2--2--5-5---7-|-(7)---------5---|-2--2--5-5---7-|-(7)---------5-----||
 ||o-0--0--3-3---5-|-(5)---5-7-7---7-|-0--0--3-3---5-|-(5)---5-7-7---7--o||
 ||----------------|-----------------|---------------|-------------------|| 


Important: The song above is NOT stored on the Chordie server. The original song is hosted at www.azchords.com. Chordie works as a search engine and provides on-the-fly formatting. Chordie does not index songs against artists'/composers' will. To remove this song please click here.

Text color:
Chord color:
Chord grids: 
Font size:    
Page size: 

A C D
Rate #1 of 2 versions

Login - add to songbook

SHARE PAGE  



You need to log in to post comments