Guitar Tabs, Chords and Lyrics
Server problems seems to be fixed. Chordie has been experiencing problems with songs disappearing. These issues now seems to be fixed, but still verifying the fix. If you find anything strange, please email admin@chordie.com.


Magnolia  J.J. Cale

Intro Chords: F - Em/C
~~~ (1/2 bends)
 
 e|--------------------------3------------8brbr-------------------------------|
 B|---------1--3--1--3--3/5---------------------------------------------------|
 G|---2~~~--------------------------------------------------------------------|
 D|---------------------------------------------------------------------------|
 A|---------------------------------------------------------------------------|
 E|---------------------------------------------------------------------------|
 e|---------------------------------------------------------------------------|
 B|---6/8~~----10--10-----8---------------------------------------------------|
 G|----------------------------------7--9~~----7--5~------------5~~-----------|
 D|--------------------------9--10---------------------7--5--7----------------|
 A|---------------------------------------------------------------------------|
 E|---------------------------------------------------------------------------|

F(Single Strum) Em/C
~ ~ Whippoorwill's singing...
 
 e|---------------------------------------------------------------------------|
 B|------5--5/8---------------------------------------------------------------|
 G|---7---------9~------------------------------------------------------------|
 D|--------------------------------------------------0--2--2--3--5------------|
 A|-----------------------------------------------3-----------------3~~-------|
 E|---------------------------------------------------------------------------|

[F] Soft summer[Em/C] breeze... [F] Makes me think of m[Em/C]y baby
 
 e|---------------------------------------------------------------------------|
 B|---------------------------------------------------------------------------|
 G|---------------------------------------------------------------------------|
 D|---------------0--2--2--5--------------------------------------------------|
 A|---------------------------3~~---------------------------------------------|
 E|---------------------------------------------------------------------------|

[F]I left down in New [Em/C]Orleans...
 
 e|---------------------------------------------------------------------------|
 B|---------------------------------------------------------------------------|
 G|---------------------------------------------------------------------------|
 D|------------------------0--2--2--3--5--------------------------------------|
 A|---------------------3-----------------3~~---------------------------------|
 E|---------------------------------------------------------------------------|

[F] I left down in New [Em/C]Orleans (bend 1/4)
 
 e|---------------------------------------------------------------------------|
 B|---------------------------------------------------------------------------|
 G|---------------------------------5--7b~-5----------------------------------|
 D|------------------------------7--------------------------------------------|
 A|---------------------------------------------------------------------------|
 E|---------------------------------------------------------------------------|

[F] Magnolia, you [Em/C]sweet thing
 
 e|---------------------------------------------------------------------------|
 B|---------------------------------------------------------------------------|
 G|------------------------5--7--9--5--7--5~~---------------------------------|
 D|------------------5--7-----------------------------------------------------|
 A|---------------------------------------------------------------------------|
 E|---------------------------------------------------------------------------|

[F] You're driving me[Em/C] mad
 
 e|---------------------3-----------------------------------------------------|
 B|---------------------5--5--5--3--5--1~~------------------------------------|
 G|---------------------------------------------------------------------------|
 D|---------------------------------------------------------------------------|
 A|---------------------------------------------------------------------------|
 E|---------------------------------------------------------------------------|

[F] Got to get back to[Em/C] you, babe (bend 1/4)
 
 e|---------------------------------------------------------------------------|
 B|---------------------------------------------------------------------------|
 G|-------------------------------5--7b~--5~~---------------------------------|
 D|----------------------------7----------------------------------------------|
 A|---------------------------------------------------------------------------|
 E|---------------------------------------------------------------------------|

[F] You're the best I e[Em/C]ver had
 
 e|---------------------------------------------------------------------------|
 B|---------------------------------------------------------------------------|
 G|---------------------------------------------------------------------------|
 D|------------------------------0--2--2--3--5--------------------------------|
 A|---------------------------3-----------------3~~---------------------------|
 E|---------------------------------------------------------------------------|

[F] You're the best I eve[Em/C]r had
[Am] You whisper "[G]Good morning"
[Am] So gently in my [G]ear
[Am] I'm coming home to y[G]ou, babe
[F] I'll soon be[Em/C] there
[F] I'll soon be[Em/C] there
(SOLO):
[Am] ~~~~(1/2[G] bends) [Am] [G]
 
 e|---------------------------------------------------------------------------|
 B|------12brbr-------------10--10--------------------------------------------|
 G|---------------------12----------12~~----------10--10------10--------------|
 D|-----------------------------------------------------12------9~~-----------|
 A|---------------------------------------------------------------------------|
 E|---------------------------------------------------------------------------|

[Am] [G] [F]  
 
 e|----------------------------------------------------0----------------------|
 B|----------8~-8~----10--10~~-----(8)-10--8~-8~~------1--3--1~~--------------|
 G|-------9--------9-----------------------------------0----------------------|
 D|----------------------------------------------------2----------------------|
 A|----------------------------------------------------3----------------------|
 E|---------------------------------------------------------------------------|

[Em/C] [F] [Em/C]  
 
 e|-------------3~-----------------------5------------------------------------|
 B|-----1--3/5-----5~~-------------5--8-----8b-8-8b-----5~~-------------------|
 G|--2------------------------------------------------------------------------|
 D|---------------------------------------------------------------------------|
 A|---------------------------------------------------------------------------|
 E|---------------------------------------------------------------------------|

[F] Magnolia, you [Em/C]sweet thing
 
 e|---------------------------------------------------------------------------|
 B|---------------------------------------------------------------------------|
 G|---------------------------------------------------------------------------|
 D|-------------------------------0h2--5--------------------------------------|
 A|----------------------------3----------3~~---------------------------------|
 E|---------------------------------------------------------------------------|

[F] You're driving me[Em/C] mad
 
 e|---------------------------------------------------------------------------|
 B|---------------------------------------------------------------------------|
 G|---------------------------------------------------------------------------|
 D|--------------------------0--2--2--3--5------------------------------------|
 A|-----------------------3-----------------3~~-------------------------------|
 E|---------------------------------------------------------------------------|

[F] Got to get back to[Em/C] you, babe
[F] You're the best I e[Em/C]ver had
 
 e|---------------------------------------------------------------------------|
 B|---------------------------------------------------------------------------|
 G|---------------------------------------------------------------------------|
 D|-------------------------------0--2--2--3--5-------------------------------|
 A|----------------------------3-----------------3~~--------------------------|
 E|---------------------------------------------------------------------------|

[F] You're the best I e[Em/C]ver had
 
 e|---------------------------------------------------------------------------|
 B|---------------------------------------------------------------------------|
 G|---------------------------------------------------------------------------|
 D|-------------------------------0--2--2--3--5-------------------------------|
 A|----------------------------3-----------------3~~--------------------------|
 E|---------------------------------------------------------------------------|

[F] You're the best I e[Em/C]ver had (1/4 bend)
 
 e|----------------------------------------------------3--5-------------------|
 B|---------------------------------------3--5--5---5--------5--5~~-----------|
 G|-----------------------------------5b--------------------------------5-----|
 D|-----------------------------------------------------------------------5---|
 A|-------------------------------------------------------------------------7-|
 E|---------------------------------------------------------------------------|

F Em/C (let ring)
You're the best I ever had
 
 e|-------------------------------------------8-------------------------------|
 B|---------------------------------8-10-8-10---10~--8------------------------|
 G|---------------------------9-7-9--------------------9----------------------|
 D|---------------------------------------------------------------------------|
 A|---------------------------------------------------------------------------|
 E|---------------------------------------------------------------------------| 


Important: The song above is NOT stored on the Chordie server. The original song is hosted at www.azchords.com. Chordie works as a search engine and provides on-the-fly formatting. Chordie does not index songs against artists'/composers' will. To remove this song please click here.

Text color:
Chord color:
Chord grids: 
Font size:    
Page size: 

Am Em/C F G
Rate #1 of 5 versions

Jango Player

Login - add to songbook

SHARE PAGE  



You need to log in to post comments