Guitar Tabs, Chords and Lyrics
Update 25:10. 13:00. Site is back up running again. Songbooks are recovered. Woring on getting search back up..


Peach, Plum, Pear  Joanna Newsom

A tabbed out version of Peach Plum Pear
The first version is almost exactly what she‚??s playing except you
lose an octave on bass note on D7sus2-4. To play exactly what
Joanna is playing you‚??ll need to tune your guitar to DGDGBE (that
version is at the bottom after the chords). I thought more people
would find a standard tuning version useful, so that‚??s up first.
I tried my best with the chord names.
Capo 4
[Am7] [Fadd9]  
 
 -3---3---3---3---3---3---3---3--3---3---3---3---3---3---3---3-|
 -1---1---1---1---1---1---1---1--1---1---1---1---1---1---1---1-|
 -------2-----------2---------2--------------------------------|
 --------------------------------------3-----------3---------3-|
 -0-----------0-----------0------------------------------------|
 --------------------------------1-----------1-----------1-----|

[D7sus2-4] [Gsus4] [G]  
 
 -0---3---0---3---0---3---0---3--3---3---3---3---3---3---3---3-|
 -----1-------1-------1-------1--1---1---1---0---0---0---0---0-|
 -2-------2-------2-------2------------0-----------0---------0-|
 -0---0---0-0-0---0---0---0-0-0--------------------------------|
 --------------------------------------------------------------|
 --------------------------------3-----------3-----------3-----|

Little variation in the intro
[Am7]  
 
 -3---3-----3---3-----3---1---3-|
 -1---1---1-----1---1-----3---1-|
 -------2---------2-----------2-|
 -------------------------------|
 -0-----------0---------0-------|
 -------------------------------|

Here‚??s how I play this tab as chords when I‚??m feeling lazy.
I play the low Fadd9 note with my thumb.
Am7=X00213 Fadd9=1X3213 D7sus2=XX0210 D7sus4=XX0213
Gsus4=320013 G=320003
We [Am7]speak in the store. I‚??m [Fadd9]a sensitive bore.
You seem [D7sus2-4]markedly more. And I'm [Gsus4]oozing sur[G]prise.
But it's [Am7]late in the day. And you're [Fadd9]well on your way.
What was [D7sus2-4]golden went gray. And I'm [Gsus4]suddenly [G]shy.
And the [Am7]gatherin' floozies af[Fadd9]ford to be choosy.
And [D7sus2-4]all sneezing darkly in the di[Gsus4]mming di[G]vide.
And I have [Am7]read the right books to in[Fadd9]terpret your looks.
You were [D7sus2-4]knocking me down with the [Gsus4]palm of your [G]eye.
oh, [Am7]nananana [Fadd9]nanananana [D7sus2-4]na na na na[Gsus4] [G]
This was [Am7]unlike the story it was [Fadd9]written to be.
I was [D7sus2-4]riding its back when it [Gsus4]used to ride [G]me.
And we were [Am7]galloping manic to the [Fadd9]mouth of the source.
We were [D7sus2-4]swallowing panic from the [Gsus4]face of its [G]force.
And [Am7]I am [D7sus2-4]blue [D7sus2-4] [Gsus4] [G] I am
[Am7]blue and [Fadd9]unwell [D7sus2-4] made me bolt [Gsus4]like a hors[G]e
oh, [Am7]nananana [Fadd9]nanananana [D7sus2-4]na na na na[Gsus4] [G]
[Am7] Now it's [Fadd9]done. [D7sus2-4] Watch it [Gsus4]go. [G] You've
chan[Am7]ged some. [Fadd9] [D7sus2-4] Water runs from [Gsus4]the snow.[G]
[Am7] Am I s[Fadd9]o dear? [D7sus2-4] Do I run [Gsus4]rare? [G] And you've
chan[Am7]ged some [Fadd9] [D7sus2-4] Peach plum pear [Gsus4] Peac[G]h plum
[Am7] [Fadd9] [D7sus2-4] [Gsus4] [G] 
********************************************************
The only way I can think to play this on guitar is to
your open strings to DGDGBE (tune E and A down a step)
Then, with a capo on 4, you play this
[Am7] [Fadd9]  
 
 -3---3---3---3---3---3---3---3--3---3---3---3---3---3---3---3-|
 -1---1---1---1---1---1---1---1--1---1---1---1---1---1---1---1-|
 -------2-----------2---------2--------------------------------|
 --------------------------------------3-----------3---------3-|
 -2-----------2-----------2------------------------------------|
 --------------------------------3-----------3-----------3-----|

[D7sus2-4] [Gsus4] [G]  
 
 -0---3---0---3---0---3---0---3--3---3---3---3---3---3---3---3-|
 -----1-------1-------1-------1--1---1---1---0---0---0---0---0-|
 -2-------2-------2-------2------------0-----------0---------0-|
 -----0---0---0-------0---0---0--------------------------------|
 --------------------------------0-----------0-----------0-----|
 -0---------0-----0---------0----------------------------------|

Little variation in the intro
[Am7]  
 
 -3---3-----3---3-----3---1---3-|
 -1---1---1-----1---1-----3---1-|
 -------2---------2-----------2-|
 -------------------------------|
 -2-----------2---------2-------|
 -------------------------------|


Important: The song above is NOT stored on the Chordie server. The original song is hosted at www.azchords.com. Chordie works as a search engine and provides on-the-fly formatting. Chordie does not index songs against artists'/composers' will. To remove this song please click here.

Text color:
Chord color:
Chord grids: 
Font size:    
Page size: 

Am7 Fadd9 G Gsus4
Rate #2 of 9 versions

Login - add to songbook

SHARE PAGE  



You need to log in to post comments