Guitar Tabs, Chords and Lyrics
Server problems seems to be fixed. Chordie has been experiencing problems with songs disappearing. These issues now seems to be fixed, but still verifying the fix. If you find anything strange, please email admin@chordie.com.


Bamboo  Joe Satriani

(Intro)
Bamboo - Joe Satriani
W [Am9]S S S S S S S S S S S S S S S S
 
 E||-------------------|--17-----7--------------17----7---19----7---|
 B||-------------------|-------------17----10-----------------------|
 G||-------------------|------17---9---------------17---9----19---9-|
 D||-------------------|----------------17----7---------------------|
 A||--0----------------|--------------------------------------------|
 E||-------------------|--------------------------------------------|

S S S S S S S S S S S S S S S S
 
 |---17----7--------------17----7---19----7----||
 |-------------17----10------------------------||
 |*-----17---9---------------17---9----19---9-*||
 |*---------------17----7---------------------*||
 |---------------------------------------------||
 |---------------------------------------------||

S S S S S S S S S S S S S S S S W
 
 --17----7--------------17----7--------------|-------------------|
 ------------17----10-------------17----10---|--L----------------|
 -----17---9---------------17---9------------|-------------------|
 ---------------17----9--------------17----9-|--L----------------|
 --------------------------------------------|-------------------|
 --------------------------------------------|-------------------|

W [Em9]S S S S S S S S S S S S S S S S
 
 -------------------|--12-----2-------------12----2---14----2---|
 -------------------|-------------12----5-----------------------|
 -------------------|------12---4--------------12---4----14---4-|
 -------------------|----------------12---2---------------------|
 -------------------|-------------------------------------------|
 --0----------------|-------------------------------------------|

S S S S S S S S S S S S S S S S
 
 |---12----2-------------12----2---14----2----||
 |-------------12----5------------------------||
 |*-----12---4--------------12---4----14---4-*||
 |*---------------12---2---------------------*||
 |--------------------------------------------||
 |--------------------------------------------||

S S S S S S S S S S S S S S S S W
 
 --12----2-------------12----2-------------|-------------------|
 ------------12----5-------------12----5---|--L----------------|
 -----12---4--------------12---4-----------|-------------------|
 ---------------12---2--------------12---2-|--L----------------|
 ------------------------------------------|-------------------|
 ------------------------------------------|-------------------|

W [Am9]S S S S S S S S S S S S S S S S
 
 -------------------|--17-----7--------------17----7---19----7---|
 -------------------|-------------17----10-----------------------|
 -------------------|------17---9---------------17---9----19---9-|
 -------------------|----------------17----7---------------------|
 --0----------------|--------------------------------------------|
 -------------------|--------------------------------------------|

S S S S S S S S S S S S S S S S
 
 |---17----7--------------17----7---19----7----||
 |-------------17----10------------------------||
 |*-----17---9---------------17---9----19---9-*||
 |*---------------17----7---------------------*||
 |---------------------------------------------||
 |---------------------------------------------||

S S S S S S S S S S S S S S S S W
 
 --17----7--------------17----7--------------|-------------------|
 ------------17----10-------------17----10---|--L----------------|
 -----17---9---------------17---9------------|-------------------|
 ---------------17----9--------------17----9-|--L----------------|
 --------------------------------------------|-------------------|
 --------------------------------------------|-------------------|

W [Em9]S S S S S S S S S S S S S S S S
 
 -------------------|--12-----3-------------12----3---14----3---|
 -------------------|-------------12----7-----------------------|
 -------------------|------12---5--------------12---5----14---5-|
 -------------------|----------------12---5---------------------|
 --3----------------|-------------------------------------------|
 -------------------|-------------------------------------------|

S S S S S S S S S S S S S S S S
 
 |---12----3-------------12----3---14----3----||
 |-------------12----7------------------------||
 |*-----12---5--------------12---5----14---5-*||
 |*---------------12---5---------------------*||
 |--------------------------------------------||
 |--------------------------------------------||

S S S S S S S S S S S S S S S S W
 
 --12----3-------------12----3-------------|-------------------|
 ------------12----7-------------12----7---|--L----------------|
 -----12---5--------------12---5-----------|-------------------|
 ---------------12---5--------------12---5-|--5----------------|
 ------------------------------------------|-------------------|
 ------------------------------------------|-------------------|

W [Am9]S S S S S S S S S S S S S S S S
 
 -------------------|--17-----7--------------17----7---19----7---|
 -------------------|-------------17----10-----------------------|
 -------------------|------17---9---------------17---9----19---9-|
 -------------------|----------------17----7---------------------|
 --0----------------|--------------------------------------------|
 -------------------|--------------------------------------------|

S S S S S S S S S S S S S S S S
 
 |---17----7--------------17----7---19----7----||
 |-------------17----10------------------------||
 |*-----17---9---------------17---9----19---9-*||
 |*---------------17----7---------------------*||
 |---------------------------------------------||
 |---------------------------------------------||

S S S S S S S S S S S S S S S S W
 
 --17----7--------------17----7--------------|-------------------|
 ------------17----10-------------17----10---|--L----------------|
 -----17---9---------------17---9------------|-------------------|
 ---------------17----9--------------17----9-|--L----------------|
 --------------------------------------------|-------------------|
 --------------------------------------------|-------------------|

W [Em9]S S S S S S S S S S S S S S S S
 
 -------------------|--12-----2-------------12----2---14----2---|
 -------------------|-------------12----5-----------------------|
 -------------------|------12---4--------------12---4----14---4-|
 -------------------|----------------12---2---------------------|
 -------------------|-------------------------------------------|
 --0----------------|-------------------------------------------|

S S S S S S S S S S S S S S S S
 
 |---12----2-------------12----2---14----2----||
 |-------------12----5------------------------||
 |*-----12---4--------------12---4----14---4-*||
 |*---------------12---2---------------------*||
 |--------------------------------------------||
 |--------------------------------------------||

S S S S S S S S S S S S S S S S W
 
 --12----2-------------12----2-------------|-------------------|
 ------------12----5-------------12----5---|--L----------------|
 -----12---4--------------12---4-----------|-------------------|
 ---------------12---2--------------12---2-|--L----------------|
 ------------------------------------------|-------------------|
 ------------------------------------------|-------------------|

W [Am9]S S S S S S S S S S S S S S S S
 
 -------------------|---------7--------------17----7---19----7---|
 -------------------|-------------17----10-----------------------|
 -------------------|------17---9---------------17---9----19---9-|
 -------------------|----------------17----7---------------------|
 --0----------------|--------------------------------------------|
 -------------------|--------------------------------------------|

S S S S S S S S S S S S S S S S
 
 |---17----7--------------17----7---19----7----||
 |-------------17----10------------------------||
 |*-----17---9---------------17---9----19---9-*||
 |*---------------17----7---------------------*||
 |---------------------------------------------||
 |---------------------------------------------||

S S S S S S S S S S S S S S S S W
 
 --17----7--------------17----7--------------|-------------------|
 ------------17----10-------------17----10---|--L----------------|
 -----17---9---------------17---9------------|-------------------|
 ---------------17----9--------------17----9-|--L----------------|
 --------------------------------------------|-------------------|
 --------------------------------------------|-------------------|

W [Em9]S S S S S S S S S S S S S S S S
 
 -------------------|--12-----3-------------12----3---14----3---|
 -------------------|-------------12----7-----------------------|
 -------------------|------12---5--------------12---5----14---5-|
 -------------------|----------------12---5---------------------|
 --3----------------|-------------------------------------------|
 -------------------|-------------------------------------------|

S S S S S S S S S S S S S S S S
 
 |---12----3-------------12----3---14----3----||
 |-------------12----7------------------------||
 |*-----12---5--------------12---5----14---5-*||
 |*---------------12---5---------------------*||
 |--------------------------------------------||
 |--------------------------------------------||

S S S S S S S S S S S S S S S S W
 
 --12----3-------------12----3-------------|-------------------|
 ------------12----7-------------12----7---|--L----------------|
 -----12---5--------------12---5-----------|-------------------|
 ---------------12---5--------------12---5-|--5----------------|
 ------------------------------------------|-------------------|
 ------------------------------------------|-------------------|

W Q E Q E E E Q E Q E Q
 
 -------------------|-------------------------|-----------------------|
 -------------------|-------------------------|-----------------------|
 -------------------|-------4-----------------|-------4---------------|
 --L----------------|--2-------4----5--7s--9--|--2-------4----5--7----|
 -------------------|-------------------------|-----------------------|
 -------------------|-------------------------|-----------------------|

Q E Q E E E Q E Q E Q Q E Q E E E
 
 -------------------------|-----------------------|-------------------------|
 -------------------------|-----------------------|-------------------------|
 -------4-----------------|-------4---------------|-------2-----------------|
 --2-------4----5--7s--9--|--2-------4----5--7----|----------0----2--4s--5--|
 -------------------------|-----------------------|--3----------------------|
 -------------------------|-----------------------|-------------------------|

Q E Q E S S E Q E Q E E E Q E Q E S S E
 
 -------------------------|-------------------------|-------------------------|
 -------------------------|-------------------------|-------------------------|
 -------2-----------------|-------2-----------------|-------2-----------------|
 ----------0----2--4-5-4--|----------0----2--4s--5--|----------0----2--4-5-4--|
 --3----------------------|--3----------------------|--3----------------------|
 -------------------------|-------------------------|-------------------------|

Q E Q E E E Q E Q E Q Q E Q E E E
 
 -------------------------|-----------------------|-------------------------|
 -------------------------|-----------------------|-------------------------|
 -------4-----------------|-------4---------------|-------4-----------------|
 --2-------4----5--7s--9--|--2-------4----5--7----|--2-------4----5--7s--9--|
 -------------------------|-----------------------|-------------------------|
 -------------------------|-----------------------|-------------------------|

Q E Q E Q Q E Q E E E Q E Q E S S E
 
 -----------------------|-------------------------|-------------------------|
 -----------------------|-------------------------|-------------------------|
 -------4---------------|-------2-----------------|-------2-----------------|
 --2-------4----5--7----|----------0----2--4s--5--|----------0----2--4-5-4--|
 -----------------------|--3----------------------|--3----------------------|
 -----------------------|-------------------------|-------------------------|

Q E Q E E E Q E Q E S S E Q E Q E E E
 
 -------------------------|-------------------------|-------------------------|
 -------------------------|-------------------------|-------------------------|
 -------2-----------------|-------2-----------------|-------4-----------------|
 ----------0----2--4s--5--|----------0----2--4-5-4--|--2-------4----5--7s--9--|
 --3----------------------|--3----------------------|-------------------------|
 -------------------------|-------------------------|-------------------------|

Q E Q E Q Q E Q E E E Q E Q E Q
 
 -----------------------|-------------------------|-----------------------|
 -----------------------|-------------------------|-----------------------|
 -------4---------------|-------4-----------------|-------4---------------|
 --2-------4----5--7----|--2-------4----5--7s--9--|--2-------4----5--7----|
 -----------------------|-------------------------|-----------------------|
 -----------------------|-------------------------|-----------------------|

Q E Q E E E Q E Q E S S E Q E Q E E E
 
 -------------------------|-------------------------|-------------------------|
 -------------------------|-------------------------|-------------------------|
 -------2-----------------|-------2-----------------|-------2-----------------|
 ----------0----2--4s--5--|----------0----2--4-5-4--|----------0----2--4s--5--|
 --3----------------------|--3----------------------|--3----------------------|
 -------------------------|-------------------------|-------------------------|

Q E Q E S S E Q E Q E E E Q E Q E Q
 
 -------------------------|-------------------------|-----------------------|
 -------------------------|-------------------------|-----------------------|
 -------2-----------------|-------4-----------------|-------4---------------|
 ----------0----2--4-5-4--|--2-------4----5--7s--9--|--2-------4----5--7----|
 --3----------------------|-------------------------|-----------------------|
 -------------------------|-------------------------|-----------------------|

Q E Q E E E Q E Q E Q Q E Q E E E
 
 -------------------------|-----------------------|-------------------------|
 -------------------------|-----------------------|-------------------------|
 -------4-----------------|-------4---------------|-------2-----------------|
 --2-------4----5--7s--9--|--2-------4----5--7----|----------0----2--4s--5--|
 -------------------------|-----------------------|--3----------------------|
 -------------------------|-----------------------|-------------------------|

Q E Q E S S E Q E Q E E E Q E Q E S S E
 
 -------------------------|-------------------------|-------------------------|
 -------------------------|-------------------------|-------------------------|
 -------2-----------------|-------2-----------------|-------2-----------------|
 ----------0----2--4-5-4--|----------0----2--4s--5--|----------0----2--4-5-4--|
 --3----------------------|--3----------------------|--3----------------------|
 -------------------------|-------------------------|-------------------------|

Q
 
 -------||
 -------||
 -------||
 -------||
 -------||
 -------||

Duration Legend
 
 ---------------

W - whole
H - half
Q - quarter
E - 8th
S - 16th
T - 32nd
X - 64th
. - note dotted
|-n-| - n-tuplets

Important: The song above is NOT stored on the Chordie server. The original song is hosted at www.azchords.com. Chordie works as a search engine and provides on-the-fly formatting. Chordie does not index songs against artists'/composers' will. To remove this song please click here.

Text color:
Chord color:
Chord grids: 
Font size:    
Page size: 

Am9 Em9
Rate #1 of 1 versions

Jango Player

Login - add to songbook

SHARE PAGE  




You need to log in to post comments