Guitar Tabs, Chords and Lyrics
Server problems seems to be fixed. Chordie has been experiencing problems with songs disappearing. These issues now seems to be fixed, but still verifying the fix. If you find anything strange, please email admin@chordie.com.


Echo  Joe Satriani

Echo
Guitar clean 1
[Em]  
 
 E||----------------------|--------------------------------|
 B||----------------------|--------------0--------------0--|
 G||----------------------|--------0--------------0--------|
 D||----------------------|-----4-----7--------4-----7-----|
 A||----------------------|--7--------------7--------------|
 E||----------------------|--------------------------------|
 --------------------------------|--------------------------------|
 --------------0--------------0--|--------------0--------------0--|
 --------0--------------0--------|--------0--------------0--------|
 -----4-----7--------4-----7-----|-----4-----7--------4-----7-----|
 --7-----------------------------|--7--------------7--------------|
 -----------------0--------------|--------------------------------|

[D6] [CM7add11+]  
 
 --------------------------------|--------------------------------|
 --------------0--------------0--|--------------0--------------0--|
 --------0--------------0--------|--------0--2-----------0--2-----|
 -----4-----7--------4-----7-----|-----4--------------4-----------|
 --7--------------5--------------|--3--------------3--------------|
 --------------------------------|--------------------------------|
 --------------------------------|--------------------------------|
 --------------0--------------0--|--------------0--------------0--|
 --------0--2-----------0--2-----|--------0--2-----------0--2-----|
 -----4--------------4-----------|-----4--------------4-----------|
 --3--------------3--------------|--3--------------3--------------|
 --------------------------------|--------------------------------|
 --------------------------------|--------------------------------|
 --------------0--------------0--|--------------0--------------0--|
 --------0--2-----------0--------|--------0--------------0--------|
 -----4--------------4-----7-----|-----4-----7--------4-----7-----|
 --3--------------5--------------|--7--------------7--------------|
 --------------------------------|--------------------------------|
 --------------------------------|--------------------------------|
 --------------0--------------0--|--------------0--------------0--|
 --------0--------------0--------|--------0--------------0--------|
 -----4-----7--------4-----7-----|-----4-----7--------4-----7-----|
 --7-----------------------------|--7--------------7--------------|
 -----------------0--------------|--------------------------------|
 --------------------------------|--------------------------------|
 --------------0--------------0--|--------------0--------------0--|
 --------0--------------0--------|--------0--2-----------0--2-----|
 -----4-----7--------4-----7-----|-----4--------------4-----------|
 --7--------------5--------------|--3--------------3--------------|
 --------------------------------|--------------------------------|
 --------------------------------|--------------------------------|
 --------------0--------------0--|--------------0--------------0--|
 --------0--2-----------0--2-----|--------0--2-----------0--2-----|
 -----4--------------4-----------|-----4--------------4-----------|
 --3--------------3--------------|--3--------------3--------------|
 --------------------------------|--------------------------------|
 --------------------------------|--------------------------------|
 --------------0--------------0--|--------------0--------------0--|
 --------0--2-----------0--------|--------0--------------0--------|
 -----4--------------4-----7-----|-----4-----7--------4-----7-----|
 --3--------------5--------------|--7--------------7--------------|
 --------------------------------|--------------------------------|
 --------------------------------|--------------------------------|
 --------------0--------------0--|--------------0--------------0--|
 --------0--------------0--------|--------0--------------0--------|
 -----4-----7--------4-----7-----|-----4-----7--------4-----7-----|
 --7-----------------------------|--7--------------7--------------|
 -----------------0--------------|--------------------------------|
 --------------------------------|--------------------------------|
 --------------0--------------0--|--------------0--------------0--|
 --------0--------------0--------|--------0--2-----------0--2-----|
 -----4-----7--------4-----7-----|-----4--------------4-----------|
 --7--------------5--------------|--3--------------3--------------|
 --------------------------------|--------------------------------|
 --------------------------------|--------------------------------|
 --------------0--------------0--|--------------0--------------0--|
 --------0--2-----------0--2-----|--------0--2-----------0--2-----|
 -----4--------------4-----------|-----4--------------4-----------|
 --3--------------3--------------|--3--------------3--------------|
 --------------------------------|--------------------------------|
 --------------------------------|--------------------------------|
 --------------0--------------0--|--------------0--------------0--|
 --------0--2-----------0--------|--------0--------------0--------|
 -----4--------------4-----7-----|-----4-----7--------4-----7-----|
 --3--------------5--------------|--7--------------7--------------|
 --------------------------------|--------------------------------|
 --------------------------------|--------------------------------|
 --------------0--------------0--|--------------0--------------0--|
 --------0--------------0--------|--------0--------------0--------|
 -----4-----7--------4-----7-----|-----4-----7--------4-----7-----|
 --7-----------------------------|--7--------------7--------------|
 -----------------0--------------|--------------------------------|
 --------------------------------|--------------------------------|
 --------------0--------------0--|--------------0--------------0--|
 --------0--------------0--------|--------0--2-----------0--2-----|
 -----4-----7--------4-----7-----|-----4--------------4-----------|
 --7--------------5--------------|--3--------------3--------------|
 --------------------------------|--------------------------------|
 --------------------------------|--------------------------------|
 --------------0--------------0--|--------------0--------------0--|
 --------0--2-----------0--2-----|--------0--2-----------0--2-----|
 -----4--------------4-----------|-----4--------------4-----------|
 --3--------------3--------------|--3--------------3--------------|
 --------------------------------|--------------------------------|
 --------------------------------|--------------------------------|
 --------------0--------------0--|--------------0--------------0--|
 --------0--2-----------0--------|--------0--------------0--------|
 -----4--------------4-----7-----|-----4-----7--------4-----7-----|
 --3--------------5--------------|--7--------------7--------------|
 --------------------------------|--------------------------------|

[Badd11]  
 
 --------------------------------|------------------------------|
 --------------0--------------0--|-------------5-------------5--|
 --------0--------------0--------|-------8-------------8--------|
 -----4-----7--------4-----7-----|----9-----9-------9-----9-----|
 --7--------------7--------------|------------------------------|
 --------------------------------|------------------------------|

[Dadd11]  
 
 ------------------------------|------------------------------------|
 -------------5----------------|----------------8----------------8--|
 -------8-------------8--------|--------11---------------11---------|
 ----9-----9-------9-----9--7--|----12------12-------12------12-----|
 ------------------------------|------------------------------------|
 ------------------------------|------------------------------------|

[C#madd9]  
 
 -----------------------------------|--------------------------------|
 ----------------8------------------|----9---------9----9---------9--|
 --------11---------------11--------|-------9--------------9---------|
 ----12------12-------12------12\---|----------13-------------13-----|
 -----------------------------------|--------------------------------|
 -----------------------------------|--------------------------------|

[G#madd9]  
 
 ------------------------------|-----------------------------|
 -------------9----9-----------|----------4---------------4--|
 ------9--------------9--------|-------4------------4--------|
 ---------13-------------13----|-----------------------8-----|
 ------------------------------|----6------------6-----------|
 ------------------------------|-----------------------------|

[Badd11]  
 
 -----------------------------|-----------------------------|
 -------------4---------------|----5--------5------------5--|
 -------4-------------4-------|-------8------------8--------|
 ----------8------------------|----------9------------9-----|
 ----6-------------6-----6----|-----------------------------|
 -----------------------------|-----------------------------|

[F#madd9] [F#madd9]  
 
 ---------------------------|-----------------------------|
 ------------5--------------|----------0------------------|
 ------8------------8-------|-------------6-------2-------|
 ---------9------------9----|-------7----------------6----|
 ---------------------------|----4-------------4----------|
 ---------------------------|-----------------------------|

[Gsus2add11+]  
 
 -----------------------------|-----------------------------|
 -------------2---------------|-------------3------------3--|
 -------2-------------2-------|-------6------------6--------|
 ----------6-------------6----|----------7------------7-----|
 ----4-------------4----------|----5------------------------|
 -----------------------------|-----------------------------|

[B9add4]  
 
 ----------------------------|-------------0-------------0--|
 -------------3--------------|-------4-------------4--------|
 -------6------------6-------|----------6-------------6-----|
 ----------7------------7----|----7-------------7-----------|
 ----5-----------------------|------------------------------|
 ----------------------------|------------------------------|
 -------------0-------------0--|-------------0-------------0--|
 -------4-------------4--------|-------4-------------4--------|
 ----------6-------------6-----|----------6-------------6-----|
 ----7-------------7-----------|----7-------------7-----------|
 ------------------------------|------------------------------|
 ------------------------------|------------------------------|
 -------------0-------------0--|--------------------------------|
 -------4-------------4--------|--------------0--------------0--|
 ----------6-------------6-----|--------0--------------0--------|
 ----7-------------7-----------|-----4-----7--------4-----7-----|
 ------------------------------|--7--------------7--------------|
 ------------------------------|--------------------------------|
 --------------------------------|--------------------------------|
 --------------0--------------0--|--------------0--------------0--|
 --------0--------------0--------|--------0--------------0--------|
 -----4-----7--------4-----7-----|-----4-----7--------4-----7-----|
 --7-----------------------------|--7--------------7--------------|
 -----------------0--------------|--------------------------------|
 --------------------------------|--------------------------------|
 --------------0--------------0--|--------------0--------------0--|
 --------0--------------0--------|--------0--2-----------0--2-----|
 -----4-----7--------4-----7-----|-----4--------------4-----------|
 --7--------------5--------------|--3--------------3--------------|
 --------------------------------|--------------------------------|
 --------------------------------|--------------------------------|
 --------------0--------------0--|--------------0--------------0--|
 --------0--2-----------0--2-----|--------0--2-----------0--2-----|
 -----4--------------4-----------|-----4--------------4-----------|
 --3--------------3--------------|--3--------------3--------------|
 --------------------------------|--------------------------------|
 --------------------------------|--------------------------------|
 --------------0--------------0--|--------------0--------------0--|
 --------0--2-----------0--------|--------0--------------0--------|
 -----4--------------4-----7-----|-----4-----7--------4-----7-----|
 --3--------------5--------------|--7--------------7--------------|
 --------------------------------|--------------------------------|
 --------------------------------|--------------------------------|
 --------------0--------------0--|--------------0--------------0--|
 --------0--------------0--------|--------0--------------0--------|
 -----4-----7--------4-----7-----|-----4-----7--------4-----7-----|
 --7-----------------------------|--7--------------7--------------|
 -----------------0--------------|--------------------------------|
 --------------------------------|--------------------------------|
 --------------0--------------0--|--------------0--------------0--|
 --------0--------------0--------|--------0--2-----------0--2-----|
 -----4-----7--------4-----7-----|-----4--------------4-----------|
 --7--------------5--------------|--3--------------3--------------|
 --------------------------------|--------------------------------|
 --------------------------------|--------------------------------|
 --------------0--------------0--|--------------0--------------0--|
 --------0--2-----------0--2-----|--------0--2-----------0--2-----|
 -----4--------------4-----------|-----4--------------4-----------|
 --3--------------3--------------|--3--------------3--------------|
 --------------------------------|--------------------------------|
 --------------------------------|--------------------------------|
 --------------0--------------0--|--------------0--------------0--|
 --------0--2-----------0--------|--------0--------------0--------|
 -----4--------------4-----7-----|-----4-----7--------4-----7-----|
 --3--------------5--------------|--7--------------7--------------|
 --------------------------------|--------------------------------|
 --------------------------------|--------------------------------|
 --------------0--------------0--|--------------0--------------0--|
 --------0--------------0--------|--------0--------------0--------|
 -----4-----7--------4-----7-----|-----4-----7--------4-----7-----|
 --7-----------------------------|--7--------------7--------------|
 -----------------0--------------|--------------------------------|
 --------------------------------|--------------------------------|
 --------------0--------------0--|--------------0--------------0--|
 --------0--------------0--------|--------0--2-----------0--2-----|
 -----4-----7--------4-----7-----|-----4--------------4-----------|
 --7--------------5--------------|--3--------------3--------------|
 --------------------------------|--------------------------------|
 --------------------------------|--------------------------------|
 --------------0--------------0--|--------------0--------------0--|
 --------0--2-----------0--2-----|--------0--2-----------0--2-----|
 -----4--------------4-----------|-----4--------------4-----------|
 --3--------------3--------------|--3--------------3--------------|
 --------------------------------|--------------------------------|
 --------------------------------|--------------------------------|
 --------------0--------------0--|--------------0--------------0--|
 --------0--2-----------0--------|--------0--------------0--------|
 -----4--------------4-----7-----|-----4-----7--------4-----7-----|
 --3--------------5--------------|--7--------------7--------------|
 --------------------------------|--------------------------------|
 --------------------------------|--------------------------------|
 --------------0--------------0--|--------------0--------------0--|
 --------0--------------0--------|--------0--------------0--------|
 -----4-----7--------4-----7-----|-----4-----7--------4-----7-----|
 --7-----------------------------|--7--------------7--------------|
 -----------------0--------------|--------------------------------|
 --------------------------------|--------------------------------|
 --------------0--------------0--|--------------0--------------0--|
 --------0--------------0--------|--------0--2-----------0--2-----|
 -----4-----7--------4-----7-----|-----4--------------4-----------|
 --7--------------5--------------|--3--------------3--------------|
 --------------------------------|--------------------------------|
 --------------------------------|--------------------------------|
 --------------0--------------0--|--------------0--------------0--|
 --------0--2-----------0--2-----|--------0--2-----------0--2-----|
 -----4--------------4-----------|-----4--------------4-----------|
 --3--------------3--------------|--3--------------3--------------|
 --------------------------------|--------------------------------|
 --------------------------------|--------------------------------|
 --------------0--------------0--|--------------0--------------0--|
 --------0--2-----------0--------|--------0--------------0--------|
 -----4--------------4-----7-----|-----4-----7--------4-----7-----|
 --3--------------5--------------|--7--------------7--------------|
 --------------------------------|--------------------------------|

[Badd11]  
 
 --------------------------------|------------------------------|
 --------------0--------------0--|-------------5-------------5--|
 --------0--------------0--------|-------8-------------8--------|
 -----4-----7--------4-----7-----|----9-----9-------9-----9-----|
 --7--------------7--------------|------------------------------|
 --------------------------------|------------------------------|

[Dadd11]  
 
 ------------------------------|------------------------------------|
 -------------5----------------|----------------8----------------8--|
 -------8-------------8--------|--------11---------------11---------|
 ----9-----9-------9-----9--7--|----12------12-------12------12-----|
 ------------------------------|------------------------------------|
 ------------------------------|------------------------------------|

[C#madd9]  
 
 -----------------------------------|--------------------------------|
 ----------------8------------------|----9---------9----9---------9--|
 --------11---------------11--------|-------9--------------9---------|
 ----12------12-------12------12\---|----------13-------------13-----|
 -----------------------------------|--------------------------------|
 -----------------------------------|--------------------------------|

[G#madd9]  
 
 ------------------------------|-----------------------------|
 -------------9----9-----------|----------4---------------4--|
 ------9--------------9--------|-------4------------4--------|
 ---------13-------------13----|-----------------------8-----|
 ------------------------------|----6------------6-----------|
 ------------------------------|-----------------------------|

[Badd11]  
 
 -----------------------------|-----------------------------|
 -------------4---------------|----5--------5------------5--|
 -------4-------------4-------|-------8------------8--------|
 ----------8------------------|----------9------------9-----|
 ----6-------------6-----6----|-----------------------------|
 -----------------------------|-----------------------------|

[F#madd9] [F#madd9]  
 
 ---------------------------|-----------------------------|
 ------------5--------------|----------0------------------|
 ------8------------8-------|-------------6-------2-------|
 ---------9------------9----|-------7----------------6----|
 ---------------------------|----4-------------4----------|
 ---------------------------|-----------------------------|

[Gsus2add11+]  
 
 -----------------------------|-----------------------------|
 -------------2---------------|-------------3------------3--|
 -------2-------------2-------|-------6------------6--------|
 ----------6-------------6----|----------7------------7-----|
 ----4-------------4----------|----5------------------------|
 -----------------------------|-----------------------------|

[B9add4]  
 
 ----------------------------|-------------0-------------0--|
 -------------3--------------|-------4-------------4--------|
 -------6------------6-------|----------6-------------6-----|
 ----------7------------7----|----7-------------7-----------|
 ----5-----------------------|------------------------------|
 ----------------------------|------------------------------|
 -------------0-------------0--|-------------0-------------0--|
 -------4-------------4--------|-------4-------------4--------|
 ----------6-------------6-----|----------6-------------6-----|
 ----7-------------7-----------|----7-------------7-----------|
 ------------------------------|------------------------------|
 ------------------------------|------------------------------|
 -------------0-------------0--|--------------------------------|
 -------4-------------4--------|--------------0--------------0--|
 ----------6-------------6-----|--------0--------------0--------|
 ----7-------------7-----------|-----4-----7--------4-----7-----|
 ------------------------------|--7--------------7--------------|
 ------------------------------|--------------------------------|
 --------------------------------|--------------------------------|
 --------------0--------------0--|--------------0--------------0--|
 --------0--------------0--------|--------0--------------0--------|
 -----4-----7--------4-----7-----|-----4-----7--------4-----7-----|
 --7-----------------------------|--7--------------7--------------|
 -----------------0--------------|--------------------------------|
 --------------------------------|--------------------------------|
 --------------0--------------0--|--------------0--------------0--|
 --------0--------------0--------|--------0--2-----------0--2-----|
 -----4-----7--------4-----7-----|-----4--------------4-----------|
 --7--------------5--------------|--3--------------3--------------|
 --------------------------------|--------------------------------|
 --------------------------------|--------------------------------|
 --------------0--------------0--|--------------0--------------0--|
 --------0--2-----------0--2-----|--------0--2-----------0--2-----|
 -----4--------------4-----------|-----4--------------4-----------|
 --3--------------3--------------|--3--------------3--------------|
 --------------------------------|--------------------------------|
 --------------------------------|--------------------------------|
 --------------0--------------0--|--------------0--------------0--|
 --------0--2-----------0--------|--------0--------------0--------|
 -----4--------------4-----7-----|-----4-----7--------4-----7-----|
 --3--------------5--------------|--7--------------7--------------|
 --------------------------------|--------------------------------|
 --------------------------------|--------------------------------|
 --------------0--------------0--|--------------0--------------0--|
 --------0--------------0--------|--------0--------------0--------|
 -----4-----7--------4-----7-----|-----4-----7--------4-----7-----|
 --7-----------------------------|--7--------------7--------------|
 -----------------0--------------|--------------------------------|
 --------------------------------|--------------------------------|
 --------------0--------------0--|--------------0--------------0--|
 --------0--------------0--------|--------0--2-----------0--2-----|
 -----4-----7--------4-----7-----|-----4--------------4-----------|
 --7--------------5--------------|--3--------------3--------------|
 --------------------------------|--------------------------------|
 --------------------------------|--------------------------------|
 --------------0--------------0--|--------------0--------------0--|
 --------0--2-----------0--2-----|--------0--2-----------0--2-----|
 -----4--------------4-----------|-----4--------------4-----------|
 --3--------------3--------------|--3--------------3--------------|
 --------------------------------|--------------------------------|
 --------------------------------|--------------------------------|
 --------------0--------------0--|--------------0--------------0--|
 --------0--2-----------0--------|--------0--------------0--------|
 -----4--------------4-----7-----|-----4-----7--------4-----7-----|
 --3--------------5--------------|--7--------------7--------------|
 --------------------------------|--------------------------------|
 --------------------------------|--------------------------------|
 --------------0--------------0--|--------------0--------------0--|
 --------0--------------0--------|--------0--------------0--------|
 -----4-----7--------4-----7-----|-----4-----7--------4-----7-----|
 --7-----------------------------|--7--------------7--------------|
 -----------------0--------------|--------------------------------|
 --------------------------------|--------------------------------|
 --------------0--------------0--|--------------0--------------0--|
 --------0--------------0--------|--------0--2-----------0--2-----|
 -----4-----7--------4-----7-----|-----4--------------4-----------|
 --7--------------5--------------|--3--------------3--------------|
 --------------------------------|--------------------------------|
 --------------------------------|--------------------------------|
 --------------0--------------0--|--------------0--------------0--|
 --------0--2-----------0--2-----|--------0--2-----------0--2-----|
 -----4--------------4-----------|-----4--------------4-----------|
 --3--------------3--------------|--3--------------3--------------|
 --------------------------------|--------------------------------|
 --------------------------------|--------------------------------|
 --------------0--------------0--|--------------0--------------0--|
 --------0--2-----------0--------|--------0--------------0--------|
 -----4--------------4-----7-----|-----4-----7--------4-----7-----|
 --3--------------5--------------|--7--------------7--------------|
 --------------------------------|--------------------------------|
 --------------------------------|--------------------------------|
 --------------0--------------0--|--------------0--------------0--|
 --------0--------------0--------|--------0--------------0--------|
 -----4-----7--------4-----7-----|-----4-----7--------4-----7-----|
 --7-----------------------------|--7--------------7--------------|
 -----------------0--------------|--------------------------------|
 --------------------------------|--------------------------------|
 --------------0--------------0--|--------------0--------------0--|
 --------0--------------0--------|--------0--2-----------0--2-----|
 -----4-----7--------4-----7-----|-----4--------------4-----------|
 --7--------------5--------------|--3--------------3--------------|
 --------------------------------|--------------------------------|
 --------------------------------|--------------------------------|
 --------------0--------------0--|--------------0--------------0--|
 --------0--2-----------0--2-----|--------0--2-----------0--2-----|
 -----4--------------4-----------|-----4--------------4-----------|
 --3--------------3--------------|--3--------------3--------------|
 --------------------------------|--------------------------------|
 --------------------------------|--------------------------------|
 --------------0--------------0--|--------------0--------------0--|
 --------0--2-----------0--------|--------0--------------0--------|
 -----4--------------4-----7-----|-----4-----7--------4-----7-----|
 --3--------------5--------------|--7--------------7--------------|
 --------------------------------|--------------------------------|
 --------------------------------|--------------------------------|
 --------------0--------------0--|--------------0--------------0--|
 --------0--------------0--------|--------0--------------0--------|
 -----4-----7--------4-----7-----|-----4-----7--------4-----7-----|
 --7-----------------------------|--7--------------7--------------|
 -----------------0--------------|--------------------------------|
 --------------------------------|--------------------------------|
 --------------0--------------0--|--------------0--------------0--|
 --------0--------------0--------|--------0--2-----------0--2-----|
 -----4-----7--------4-----7-----|-----4--------------4-----------|
 --7--------------5--------------|--3--------------3--------------|
 --------------------------------|--------------------------------|
 --------------------------------|--------------------------------|
 --------------0--------------0--|--------------0--------------0--|
 --------0--2-----------0--2-----|--------0--2-----------0--2-----|
 -----4--------------4-----------|-----4--------------4-----------|
 --3--------------3--------------|--3--------------3--------------|
 --------------------------------|--------------------------------|
 --------------------------------|--------------------------------|
 --------------0--------------0--|--------------0--------------0--|
 --------0--2-----------0--------|--------0--------------0--------|
 -----4--------------4-----7-----|-----4-----7--------4-----7-----|
 --3--------------5--------------|--7--------------7--------------|
 --------------------------------|--------------------------------|
 --------------------------------|--------------------------------|
 --------------0--------------0--|--------------0--------------0--|
 --------0--------------0--------|--------0--------------0--------|
 -----4-----7--------4-----7-----|-----4-----7--------4-----7-----|
 --7--------------7--------------|--7--------------7--------------|
 --------------------------------|--------------------------------|
 --------------------------------|--------------------------------|
 --------------0--------------0--|--------------0--------------0--|
 --------0--------------0--------|--------0--2-----------0--2-----|
 -----4-----7--------4-----7-----|-----4--------------4-----------|
 --7--------------5--------------|--3--------------3--------------|
 --------------------------------|--------------------------------|
 --------------------------------|--------------------------------|
 --------------0--------------0--|--------------0--------------0--|
 --------0--2-----------0--2-----|--------0--2-----------0--2-----|
 -----4--------------4-----------|-----4--------------4-----------|
 --3--------------3--------------|--3--------------3--------------|
 --------------------------------|--------------------------------|
 --------------------------------|--------------------------------|
 --------------0--------------0--|--------------0--------------0--|
 --------0--2-----------0--------|--------0--------------0--------|
 -----4--------------4-----7-----|-----4-----7--------4-----7-----|
 --3--------------5--------------|--7--------------7--------------|
 --------------------------------|--------------------------------|
 --------------------------------|--------------------------------|
 --------------0--------------0--|--------------0--------------0--|
 --------0--------------0--------|--------0--------------0--------|
 -----4-----7--------4-----7-----|-----4-----7--------4-----7-----|
 --7--------------7--------------|--7--------------7--------------|
 --------------------------------|--------------------------------|
 -----------------------|----------------------|----------------------||
 -----------------------|----------------------|----------------------||
 -----------------------|----------------------|----------------------||
 -----------------------|----------------------|----------------------||
 --7--------------------|----------------------|----------------------||
 -----------------------|----------------------|----------------------||

Guitar Nashville 2
3x
 
 E||----------------------|----------------------|----------------------|
 B||----------------------|----------------------|----------------------|
 G||----------------------|----------------------|----------------------|
 D||----------------------|----------------------|----------------------|
 A||----------------------|----------------------|----------------------|
 E||----------------------|----------------------|----------------------|
 ----------------5--------|----------------------|----------------------|
 ----------------3--------|----------------------|----------------------|
 --------------0----------|----------------------|----------------------|
 ------------4------------|----------------------|----------------------|
 -------------------------|----------------------|----------------------|
 -------------------------|----------------------|----------------------|
 ----------------------|---------12------------------|
 ----------------------|------7-------------12-------|
 ----------------------|---------------7-------------|
 ----------------------|--------------------------7--|
 ----------------------|-----------------------------|
 ----------------------|-----------------------------|
 -------------------------7--|----------------------|----------------------|
 ----------------------------|----------------------|----------------------|
 --12------------------------|----------------------|----------------------|
 -------------12-------------|----------------------|----------------------|
 --------7-------------------|----------------------|----------------------|
 ----------------------------|----------------------|----------------------|

6x
 
 ----------------------|----------------------|----------------------|
 ----------------------|----------------------|----------------------|
 ----------------------|----------------------|----------------------|
 ----------------------|----------------------|----------------------|
 ----------------------|----------------------|----------------------|
 ----------------------|----------------------|----------------------|
 -------7------------------|----------------------|-------10------------------|
 ----5--------5------------|----------------------|----8---------8------------|
 ----------6---------------|----------------------|-----------9---------------|
 --------------------------|----------------------|---------------------------|
 --------------------------|----------------------|---------------------------|
 --------------------------|----------------------|---------------------------|
 ----------------------|-------11------------------|----------------------|
 ----------------------|----9---------9------------|----------------------|
 ----------------------|-----------9---------------|----------------------|
 ----------------------|---------------------------|----------------------|
 ----------------------|---------------------------|----------------------|
 ----------------------|---------------------------|----------------------|
 -------6------------------|----------------------|-------7------------------|
 ----4--------4------------|----------------------|----5--------5------------|
 ----------4---------------|----------------------|----------6---------------|
 --------------------------|----------------------|--------------------------|
 --------------------------|----------------------|--------------------------|
 --------------------------|----------------------|--------------------------|
 ----------------------|-------------4------------|----------------------|
 ----------------------|----------0---------------|----------------------|
 ----------------------|-------2------------------|----------------------|
 ----------------------|----2---------------------|----------------------|
 ----------------------|--------------------------|----------------------|
 ----------------------|--------------------------|----------------------|
 --------------------------|----------------------|----7---------------------|
 --------------------------|----------------------|--------------------------|
 ----------4---------------|----------------------|-----------9--------------|
 -------7------------------|----------------------|-------11-----------------|
 ----5--------5------------|----------------------|--------------------------|
 --------------------------|----------------------|--------------------------|
 ----------------------|----------------------|----------------------|
 ----------------------|----------------------|----------------------|
 ----------------------|----------------------|----------------------|
 ----------------------|----------------------|----------------------|
 ----------------------|----------------------|----------------------|
 ----------------------|----------------------|----------------------|
 ----------------------|----------------------|-----------------------|
 ----------------------|----------------------|--------------------8--|
 ----------------------|----------------------|-----------------------|
 ----------------------|----------------------|-----------------------|
 ----------------------|----------------------|-----------------------|
 ----------------------|----------------------|-----------------------|
 --10----------------------|----------------------|----------------------|
 --------------------------|----------------------|----------------------|
 ------11------------------|----------------------|----------------------|
 --------------------------|----------------------|----------------------|
 --------------------------|----------------------|----------------------|
 --------------------------|----------------------|----------------------|
 ----------------------|--------------------2-----|-----------------------|
 ----------------------|----------------------3---|-----------------------|
 ----------------------|------------------------0-|-----------------------|
 ----------------------|--------------------------|--4--------------------|
 ----------------------|--------------------------|-----------------------|
 ----------------------|--------------------------|-----------------------|
 ----------------------|----------------------|----------------------|
 ----------------------|----------------------|----------------------|
 ----------------------|----------------------|----------------------|
 ----------------------|----------------------|----------------------|
 ----------------------|----------------------|----------------------|
 ----------------------|----------------------|----------------------|
 -------5-----------------|----------------------|----------------------|
 ------------7------------|----------------------|----------------------|
 ----0--------------------|----------------------|----------------------|
 -------------------------|----------------------|----------------------|
 -------------------------|----------------------|----------------------|
 -------------------------|----------------------|----------------------|
 ----------------------|---------------------3-----|----------------------|
 ----------------------|------------5-----------5--|----------------------|
 ----------------------|---------------4-----------|----------------------|
 ----------------------|------------------4--------|----------------------|
 ----------------------|---------------------------|----------------------|
 ----------------------|---------------------------|----------------------|
 ----------------------|----------------------|----------------------|
 ----------------------|----------------------|----------------------|
 ----------------------|----------------------|----------------------|
 ----------------------|----------------------|----------------------|
 ----------------------|----------------------|----------------------|
 ----------------------|----------------------|----------------------|
 ----------------------|----------5--------------|----------------------|
 ----------------------|----------3--------------|----------------------|
 ----------------------|-------0-----------------|----------------------|
 ----------------------|----4--------------------|----------------------|
 ----------------------|-------------------------|----------------------|
 ----------------------|-------------------------|----------------------|
 ----------5---------------|----------------------|----------------------|
 --------------------------|----------------------|----------------------|
 -------0------------------|----------------------|----------------------|
 ----4--------4------------|----------------------|----------------------|
 --------------------------|----------------------|----------------------|
 --------------------------|----------------------|----------------------|
 ----------------------|-------5-----------------|----------------------|
 ----------------------|-------------------------|----------------------|
 ----------------------|----0--------------------|----------------------|
 ----------------------|----------4--------------|----------------------|
 ----------------------|-------------------------|----------------------|
 ----------------------|-------------------------|----------------------|
 ----------------------|----------------------|-------------5------------|
 ----------------------|----------------------|----3---------------------|
 ----------------------|----------------------|----------0---------------|
 ----------------------|----------------------|-------4------------------|
 ----------------------|----------------------|--------------------------|
 ----------------------|----------------------|--------------------------|
 ----------------------|-------7------------------|----------------------|
 ----------------------|----5--------5------------|----------------------|
 ----------------------|----------6---------------|----------------------|
 ----------------------|--------------------------|----------------------|
 ----------------------|--------------------------|----------------------|
 ----------------------|--------------------------|----------------------|
 -------10------------------|----------------------|-------11------------------|
 ----8---------8------------|----------------------|----9---------9------------|
 -----------9---------------|----------------------|-----------9---------------|
 ---------------------------|----------------------|---------------------------|
 ---------------------------|----------------------|---------------------------|
 ---------------------------|----------------------|---------------------------|
 ----------------------|-------6------------------|----------------------|
 ----------------------|----4--------4------------|----------------------|
 ----------------------|----------4---------------|----------------------|
 ----------------------|--------------------------|----------------------|
 ----------------------|--------------------------|----------------------|
 ----------------------|--------------------------|----------------------|
 -------7------------------|----------------------|-------------4------------|
 ----5--------5------------|----------------------|----------0---------------|
 ----------6---------------|----------------------|-------2------------------|
 --------------------------|----------------------|----2---------------------|
 --------------------------|----------------------|--------------------------|
 --------------------------|----------------------|--------------------------|
 ----------------------|--------------------------|----------------------|
 ----------------------|--------------------------|----------------------|
 ----------------------|----------4---------------|----------------------|
 ----------------------|-------7------------------|----------------------|
 ----------------------|----5--------5------------|----------------------|
 ----------------------|--------------------------|----------------------|
 ----7---------------------|----------------------|----------------------|
 --------------------------|----------------------|----------------------|
 -----------9--------------|----------------------|----------------------|
 -------11-----------------|----------------------|----------------------|
 --------------------------|----------------------|----------------------|
 --------------------------|----------------------|----------------------|

7x
 
 ----------------------|----------------------|----------------------|
 ----------------------|----------------------|----------------------|
 ----------------------|----------------------|----------------------|
 ----------------------|----------------------|----------------------|
 ----------------------|----------------------|----------------------|
 ----------------------|----------------------|----------------------|
 ---------------------5----|----------------------|----------------------|
 ------------------3-------|----------------------|----------------------|
 ---------------0----------|----------------------|----------------------|
 ------------4-------------|----------------------|----------------------|
 --------------------------|----------------------|----------------------|
 --------------------------|----------------------|----------------------|
 --------------7----12----|-----------------------|
 --------------7----12----|-----------------------|
 -------------------------|-----------------------|
 -------------------------|-----------------------|
 -------------------------|--7--------------------|
 -------------------------|--7--------------------|
 ----------------------------7-|----------------------|----------------------|
 --------------------------7---|----------------------|----------------------|
 ------------------------7-----|----------------------|----------------------|
 ----------------------7-------|----------------------|----------------------|
 --------------------7---------|----------------------|----------------------|
 ------------------------------|----------------------|----------------------|
 ----------------------|----------------------|--------------------2-----|
 ----------------------|----------------------|----------------------3---|
 ----------------------|----------------------|------------------------0-|
 ----------------------|----------------------|--------------------------|
 ----------------------|----------------------|--------------------------|
 ----------------------|----------------------|--------------------------|
 -----------------------|----------------------|----------------------|
 -----------------------|----------------------|----------------------|
 -----------------------|----------------------|----------------------|
 --4--------------------|----------------------|----------------------|
 -----------------------|----------------------|----------------------|
 -----------------------|----------------------|----------------------|
 --------5--------------------|----------------------|----------------------|
 ------3----------------------|----------------------|----------------------|
 ----0------------------------|----------------------|----------------------|
 -----------------------------|----------------------|----------------------|
 --2--------------------------|----------------------|----------------------|
 -----------------------------|----------------------|----------------------|
 ----------------------|----------------------|----------------------|
 ----------------------|----------------------|----------------------|
 ----------------------|----------------------|----------------------|
 ----------------------|----------------------|----------------------|
 ----------------------|----------------------|----------------------|
 ----------------------|----------------------|----------------------|
 ----------5-------------5-----|----------5-------------5-----|
 -------------0-------------0--|-------------0-------------0--|
 -------7-------------7--------|-------7-------------7--------|
 ----4-------------4-----------|----4-------------4-----------|
 ------------------------------|------------------------------|
 ------------------------------|------------------------------|
 ----------5-------------5-----|----------5-------------5-----|
 -------------0-------------0--|-------------0-------------0--|
 -------7-------------7--------|-------7-------------7--------|
 ----4-------------4-----------|----4-------------4-----------|
 ------------------------------|------------------------------|
 ------------------------------|------------------------------|
 ----------5-------------5-----|----------5-------------5-----|
 -------------0-------------0--|-------------0-------------0--|
 -------7-------------7--------|-------7-------------7--------|
 ----4-------------4-----------|----4-------------4-----------|
 ------------------------------|------------------------------|
 ------------------------------|------------------------------|
 ----------5-------------5-----|----------5-------------5-----|
 -------------0-------------0--|-------------0-------------0--|
 -------7-------------7--------|-------7-------------7--------|
 ----4-------------4-----------|----4-------------4-----------|
 ------------------------------|------------------------------|
 ------------------------------|------------------------------|
 ----------5-------------5-----|----------5-------------5-----|
 -------------0-------------0--|-------------0-------------0--|
 -------7-------------7--------|-------7-------------7--------|
 ----4-------------4-----------|----4-------------4-----------|
 ------------------------------|------------------------------|
 ------------------------------|------------------------------|
 ----------5-------------5-----|----------5-------------5-----|
 -------------0-------------0--|-------------0-------------0--|
 -------7-------------7--------|-------7-------------7--------|
 ----4-------------4-----------|----4-------------4-----------|
 ------------------------------|------------------------------|
 ------------------------------|------------------------------|
 ----------------------|----------------------||
 ----------------------|----------------------||
 ----------------------|----------------------||
 ----------------------|----------------------||
 ----------------------|----------------------||
 ----------------------|----------------------||

Guitar solo 5
5x
 
 E||----------------------|----------------------|----------------------|
 B||----------------------|----------------------|----------------------|
 G||----------------------|----------------------|----------------------|
 D||----------------------|----------------------|----------------------|
 A||----------------------|----------------------|----------------------|
 E||----------------------|----------------------|----------------------|
 ----------------------|----------------------|-------5----5----5----5--7--|
 ----------------------|----------------------|----5-----------------------|
 ----------------------|----------------------|----------------------------|
 ----------------------|----------------------|----------------------------|
 ----------------------|----------------------|----------------------------|
 ----------------------|----------------------|----------------------------|
 ------------------------|-------5----5----5----5--7--|
 --5------5~-------------|----5-----------------------|
 ------------------------|----------------------------|
 ------------------------|----------------------------|
 ------------------------|----------------------------|
 ------------------------|----------------------------|
 ----------------------------|--------------------------|
 --5------5~-----7/8~---7----|--3/-----5----8p-5~-------|
 --------------7-------------|--------------------------|
 ----------------------------|--------------------------|
 ----------------------------|--------------------------|
 ----------------------------|--------------------------|
 --------------------------|---------------------------|-----------

Important: The song above is NOT stored on the Chordie server. The original song is hosted at www.azchords.com. Chordie works as a search engine and provides on-the-fly formatting. Chordie does not index songs against artists'/composers' will. To remove this song please click here.

Text color:
Chord color:
Chord grids: 
Font size:    
Page size: 

B9add4 Badd11 C#madd9 D6 Dadd11 Em F#madd9 G#madd9
Rate #1 of 1 versions

Jango Player

Login - add to songbook

SHARE PAGE  



You need to log in to post comments