Guitar Tabs, Chords and Lyrics
Server problems seems to be fixed. Chordie has been experiencing problems with songs disappearing. These issues now seems to be fixed, but still verifying the fix. If you find anything strange, please email admin@chordie.com.


The Extremist   Joe Satriani

 
 e:------------0--------------0---------------------------------|
 B:------------0--------------0---------------------------------|
 G:-------------------------------------------------------------|
 D:-------------------------------------------------------------|
 A:--------------------------------------------4-5-4-2-4-2----2-|
 E:0-3-0-3-0-3----0-3-0-3-0-3----0-3-0-3-0--0--------------3--0-|

 


 


 


 Guitar 2


 Main:


 

 
 e:---------------------------------------------------------------------------|
 B:--------------------------12--14-------------------------------------------|
 G:----------------------12--12--14--12--------------------------12-----------|
 D:-------------------------------------14~~~~~~~~~~~--12~~~~-14----14~~~~~~~~|
 A:---------------------------------------------------------------------------|
 E:---------------------------------------------------------------------------|

 


 p.m.


 


 b(1) slow bend


 [s]  

 
 e:---------------------------------------------------------------------------|
 B:---14-14----15-------------------------------------------------------------|
 G:---12-12----12---12--------------------------------------------------------|
 D:~~------------------14~~~~~~~~~~---12--11----------------------5-7-7-7-7-7-|
 A:------------------------------------------10b(12)------------7-------------|
 E:-------------------------------------------------12~~~~~~~\----------------|

 


 


 


 r b(1) b(1) r r b(1) VVVVVVVV


 


 

 
 e:---------22b(24)b(22)--22b(24)b(22)22b(24)-----------15-----------12-------|
 B:---------------------------------------------------------14b(15)-----12-14b|
 G:---------------------------------------------------------------------------|
 D:---------------------------------------------------------------------------|
 A:---------------------------------------------------------------------------|
 E:---------------------------------------------------------------------------|

 


 


 


 s p


 


 

 
 e:-------------------------------0------------------------------------9------|
 B:(15)-------------------------3---3----------------------------------12b(14)|
 G:-------12b(13)---------------------4\2-0-4\2-0-----------------------------|
 D:--------------14~~~~~~~~\----------------------2~~~~~~~~~~-0---------------|
 A:-------------------------------------------------------------2-1-0---------|
 E:---------------------------------------------------------------------------|
 e:--10-------12----------------11-------12-------14-----------------0-0-0-0-0|
 B:--13b(15)--15b(17)~~~~~~~~---14b(16)--15b(17)--17b(19)~~~~~~~~-\5----------|
 G:---------------------------------------------------------------------------|
 D:---------------------------------------------------------------------------|
 A:---------------------------------------------------------------------------|
 E:---------------------------------------------------------------------------|

 


 


 


 vvvvvvvvvvv s*(2nd time to end) VVVVVVVVVVVV


 


 

 
 e:-0-12------12--------------------0-0-0-0-0-0-12------12----------------|
 B:---15b(17)-15b(17)------------\5-------------15b(17)-15b(17)-----------|
 G:-----------------------------------------------------------------------|
 D:-----------------------------------------------------------------------|
 A:-----------------------------------------------------------------------|
 E:-----------------------------------------------------------------------|

 


 


 VVVVVVVVVVVVVVVVVV


 Harmonica solo:


 

 
 e:------------------------|
 B:------------------------|
 G:------------------------|
 D:------------------------|
 A:------------------------|
 E:------------------------|

 


 


 


 pick slides


 


 

 
 e:--------------------------------9---9-11-12---9-11-12-14-0-11-12-14-16-0-12|
 B:----------------------------9-----9---------9------------------------------|
 G:---------------------------------------------------------------------------|
 D:--------------x\-----------------------------------------------------------|
 A:--------------x\-----------------------------------------------------------|
 E:----x\x/x\\\\\-----x\\\\\--------------------------------------------------|

 


 


 


 b(1) r p VVVVVVVV h p


 


 

 
 e:-14-16-17-0-14-16-17-19-0-16-17-19-0-19-19b(21)--b(19)-17-19---------17-19-|
 B:---------------------------------------------------------------------------|
 G:---------------------------------------------------------------------------|
 D:---------------------------------------------------------------------------|
 A:---------------------------------------------------------------------------|
 E:---------------------------------------------------------------------------|

 


 


 


 p h p h p p h p p h p p h p p h p p h p s h p s h h p h


 


 

 
 e:17-16-17-16-17-16-14-16-14-12-14-12-11-12-11-9-11-9-7-9-7\5-7-5\4-5-7-5----|
 B:------------------------------------------------------------------------4-5|
 G:---------------------------------------------------------------------------|
 D:---------------------------------------------------------------------------|
 A:---------------------------------------------------------------------------|
 E:---------------------------------------------------------------------------|

 


 


 


 p p s s VVVVV s b(1) r b(1.5)


 


 

 
 e:---------------------21b(23)--b(21)-21b(24)~~~~~---9b(11)---b(9)--9b(11)-b(|
 B:-7-5-4---------------------------------------------------------------------|
 G:-------6\4/6------/--------------------------------------------------------|
 D:---------------------------------------------------------------------------|
 A:---------------------------------------------------------------------------|
 E:---------------------------------------------------------------------------|

 


 


 


 VVVVVVV


 


 

 
 e:9)-----------------------------9------------9------------9----------------9|
 B:----------------------12b(14)----9-12b(14)----9-12b(14)----9-12b(14)~~~~~--|
 G:---11b(13)-----------------------------------------------------------------|
 D:---------------------------------------------------------------------------|
 A:---------------------------------------------------------------------------|
 E:---------------------------------------------------------------------------|

 


 


 


 p p p p b(1.5)r


 


 

 
 e:---------------9-------------------9---------------------------------------|
 B:-12-9------------12-9----------------12-9----------------------------------|
 G:------11b(13)---------11b(13)~~~~---------11b(13)-b(11)-9------------------|
 D:----------------------------------------------------------11-9-------------|
 A:---------------------------------------------------------------11b(14)b(11)|
 E:---------------------------------------------------------------------------|

 


 


 


 b(1.5) h h p h p h p s s h p h


 


 

 
 e:---------------------------------------------------------------------------|
 B:---------------------------------------------------------------------------|
 G:------------------9-9-8-9-8w(1)-9-8-8w(1)--9-8----8-9-8\6-6/8-8-9-8----8-8-|
 D:--------------------------------------------------------------------11-----|
 A:-11b(14)~~~~~--------------------------------------------------------------|
 E:---------------------------------------------------------------------------|

 


 


 


 p s h p s p s p p p h p h p s p p h p h p p


 


 

 
 e:---------------------------------------------------------------------------|
 B:---------------------------------------------------------------------------|
 G:9-8\6-8-6-\4-6-4\2---4-2-1--2-1-4-1-2-4/6-4-2------------------------------|
 D:----------------------------------------------0-2-1---2-4-2-1~~~~~~~~~~~~--|
 A:---------------------------------------------------------------------------|
 E:---------------------------------------------------------------------------|

 


 


 


 h h h h p h h h h h p p h h h p s s s s h h h h p p h h


 


 

 
 e:-----------------------------------------------------------------------4---|
 B:---------------------------------------------------------4-5-7-5-4-5-7---7b|
 G:---------------------------------6-8-9-8---6\2/4\1/2-4-6-------------------|
 D:---------------------6-7-9-7-6-9---------9---------------------------------|
 A:-------4-6-7-4-6-7-9-------------------------------------------------------|
 E:-4-5-7---------------------------------------------------------------------|

 


 


 


 VVVVVVVV b(1) r p s p


 


 

 
 e:-------------------------12b(14)--------9----------------------------------|
 B:(9)---~~~~~~~-----------------------------12-9-----------------------------|
 G:-----------------------------------------------11b(13)b(11)-9--------------|
 D:--------------------------------------------------------------11-9---------|
 A:--------------x\\\\\--x/-------------------------------------------11\9-7-9|
 E:--------------x\\\\\--x/---------------------------------------------------|

 


 


 


 p.h.


 


 

 
 e:---------------------------------------------------------------------------|
 B:-----------9\--0-0-9-7-0-9-10-0-12-10-0-12-14-0-16-14-0-16-17-0-19-17-0-21-|
 G:---------------------------------------------------------------------------|
 D:---------------------------------------------------------------------------|
 A:-7-------------------------------------------------------------------------|
 E:---7-9---------------------------------------------------------------------|

 


 


 


 b (1) b(1) VVVVVVVVV b(1) r p.h.*<2


 slow bend


 

 
 e:---------------------------------------------------------------------------|
 B:19-0-22b(24)-22-22-22---22b(25)-------------22b(24)b(12)-------------------|
 G:---------------------------------------------------------------------0-----|
 D:------------------------------------------------------------------0--------|
 A:----------------------------------------------------------------0----------|
 E:---------------------------------------------------------------------------|

 


 *play t


 


 


 .5> p.h.*<5> p.h.*<5> p.h.*<5> p.h.*<3.


 


 

 
 e:---------------------------------------------------------------------------|
 B:---------------------------------------------------------------------------|
 G:----------------0----------------0-----------------0----------------0------|
 D:---------------------------------------------------------------------------|
 A:---------------------------------------------------------------------------|
 E:---------------------------------------------------------------------------|

 


 he harmonic, then dive w\ bar. it's best to dive the bar with your left han


 


 5> p.h.*<4> p.h.*<5.5> p.h.*<5.5>


 


 

 
 e:---------------------------------------------------------------------------|
 B:--------------------------------------------------------------------14----1|
 G:----------0-------------0--------------0-------------------------14----14--|
 D:---------------------------------------------------------------------------|
 A:------------------------------------------------------0--------------------|
 E:---------------------------------------------------------------------------|

 


 d as you pick w\ your right.


 


 b(1) r b(1) r b(1) s


 


 

 
 e:---------------------------------------------------------------------------|
 B:5-17-17b(19)~~~b(17)------15-14-15-17-17b(19)b(17)--17b(9)~~~~~~~~~~~------|
 G:---------------------------------------------------------------------------|
 D:---------------------------------------------------------------------------|
 A:---------------------------------------------------------------------------|
 E:-----------------------------------------------------------------------12\-|

 


 


 b(1) r b(1)


 


 

 
 e:-------------------------------------------------------------|
 B:-----------14----15-17-17b(19)b(17)--x-15-x-20b(22)~~~~~~~~~-|
 G:--------14----14---------------------------------------------|
 D:-------------------------------------------------------------|
 A:-0-----------------------------------------------------------|
 E:-------------------------------------------------------------|

 


 


 


 *Ending: b(1) b(1) b(1) b(1) b(


 


 

 
 e:-0-0-0-0-0-0-12-------12---------------9-------10------12---------------11-|
 B:-------------15b(17)--15b(17)~~~~~-----12b(14)-13b(15)-15b(17)~~~~~~~~--14b|
 G:---------------------------------------------------------------------------|
 D:---------------------------------------------------------------------------|
 A:---------------------------------------------------------------------------|
 E:---------------------------------------------------------------------------|

 


 


 


 [1)] [b(1)] [b(1)] [s] [b(1)] [b(1)] [s] 


 

 
 e:------12------14-----------------0-0-0-0-0-0--12--------12----------------0|
 B:(16)--15b(17)-17b(19)~~~~~~~--\5--------------15b(17)---15b(17)~~~~~~--\5--|
 G:---------------------------------------------------------------------------|
 D:---------------------------------------------------------------------------|
 A:---------------------------------------------------------------------------|
 E:---------------------------------------------------------------------------|

 


 


 b(1) b(1) p.h.*<3.5>


 


 

 
 e:-0-0-0-0-0--12--------12---------------------------------------------|
 B:------------15b(17)---15b(17)~~~~~~~~~~~~~~~~~~~~--------------------|
 G:---------------------------------------------------0-----------------|
 D:---------------------------------------------------0-----------------|
 A:---------------------------------------------------------------------|
 E:---------------------------------------------------------------------|

 


 


 Harmonica solo:( w\ intro)


 (play 3 times)


 

 
 e:----------------------------|
 B:----------------------------|
 G:----------------------------|
 D:----------------------------|
 A:----------------------------|
 E:----------------------------|

 


 


 


 b(3.5)r b(1) p


 


 

 
 e:-----------------------------------------------------|
 B:------------------------------------------------8----|
 G:------------------------------------------------7--0-|
 D:-----------------------------------------------------|
 A:---------------4-5-4-2-4-2----------------------7----|
 E:-0-3-0-3-0---0-------------3-0-7b(14)b(7)7b(9)-------|


Important: The song above is NOT stored on the Chordie server. The original song is hosted at www.azchords.com. Chordie works as a search engine and provides on-the-fly formatting. Chordie does not index songs against artists'/composers' will. To remove this song please click here.

This song is displayed as text-only. Transposing and tuning is only available for chordpro-songs.
Rate #1 of 2 versions

Jango Player

Login - add to songbook

SHARE PAGE  




You need to log in to post comments