Guitar Tabs, Chords and Lyrics
Update 25:10. 13:00. Site is back up running again. Songbooks are recovered. Woring on getting search back up..


The Mystical Potato Head Groove Thing  Joe Satriani

Music by Joe Satriani
Arranged by Joe Satriani
Gtr I (E A D G B E) - 'Joe Satriani - Rhythm w/dist'
Gtr II (E A D G B E) - 'Joe Satriani - Lead w/dist'
Gtr III (E A D G B E) - 'Joe Satriani - Lead w/dist'
Intro
[4/4] Gtr I
 
 PM----| PM----|

E S S E E +E E Q W E S S E E +E E Q W
 
 ||------------------------|----------|-----------------------|-------||
 ||o-----------------------|----------|-----------------------|------o||
 ||------------------------|----------|-----------------------|-------||
 ||----------11-(11)-12----|----------|---------12-(12)-11----|-------||
 ||o----------7--(7)--7----|----------|----------7--(7)--7----|------o||
 ||--0-0-0-0---------------|----------|-0-0-0-0---------------|-------||

PM----|
E S S E E +E E Q E E E E E +E E E
 
 |-----------------------|---------------------|
 |-----------------------|---------------------|
 |-----------------------|---------------------|
 |---------11-(11)-12----|---------------------|
 |----------7--(7)--7----|---------------------|
 |-0-0-0-0---------------|---0-3-0-5b6r(5)-3p0-|

|-Rhy Fig 1
PM----| ~
E S S E E +E E Q E E E E E E Q
 
 |-----------------------|------------------|
 |-----------------------|------------------|
 |-----------------------|------------------|
 |---------12-(12)-11----|------------------|
 |----------7--(7)--7----|-------------5----|
 |-0-0-0-0---------------|---0-3-0-6h7------|

PM----|
E S S E E +E E Q E E E E E +E E E
 
 |-----------------------|---------------------|
 |-----------------------|---------------------|
 |-----------------------|---------------------|
 |---------11-(11)-12----|---------------------|
 |----------7--(7)--7----|---------------------|
 |-0-0-0-0---------------|---0-3-0-5b6r(5)-3p0-|

PM----|
E S S E E +E E Q E E E E E E E E
 
 |-----------------------|-----------0-------|
 |-----------------------|-------------------|
 |-----------------------|-------2-3---3s2---|
 |---------12-(12)-11----|-------------------|
 |----------7--(7)--7----|---2-3-------------|
 |-0-0-0-0---------------|-------------------|

end Rhy Fig 1-|
PM----|
E S S E E +E E Q E E E E E +E E E
 
 |-----------------------|---------------------|
 |-----------------------|---------------------|
 |-----------------------|---------------------|
 |---------11-(11)-12----|---------------------|
 |----------7--(7)--7----|---------------------|
 |-0-0-0-0---------------|---0-3-0-5b6r(5)-3p0-|

PM----| ~~~
E S S E E +E E Q E E E E E E Q
 
 |-----------------------|----------------------|
 |-----------------------|----------------------|
 |-----------------------|----------------------|
 |---------12-(12)-11----|----------------------|
 |----------7--(7)--7----|----------------------|
 |-0-0-0-0---------------|---0-3-0-6b7-7-6b7----|

PM----|
E S S E E +E E Q E E E E E +E E E
 
 |-----------------------|---------------------|
 |-----------------------|---------------------|
 |-----------------------|---------------------|
 |---------11-(11)-12----|---------------------|
 |----------7--(7)--7----|---------------------|
 |-0-0-0-0---------------|---0-3-0-5b6r(5)-3p0-|

Gtr II
7___/
H Q E a +E W
 
 |------------------------------|------------------||
 |------------------------------|------------------||
 |----------------------0---(0)-|-4----------------||
 |------------------------------|------------------||
 |------------------------------|------------------||
 |------------------------------|------------------||

| Gtr I
| PM----|
| E S S E E +E E Q E E E E E E E E
 
 |------------------------------|-----------0------||
 |------------------------------|------------------||
 |------------------------------|-------2-3---3----||
 |---------12-(12)-11-----------|------------------||
 |----------7--(7)--7-----------|---2-3---------3--||
 |-0-0-0-0----------------------|------------------||

~~~~~~~~~~~~~~~~~~~~~~~~~~
H. +Q +W
 
 |--------------------|-------------------|
 |--------------------|-------------------|
 |-4------------(4)---|-(4)---------------|
 |--------------------|-------------------|
 |--------------------|-------------------|
 |--------------------|-------------------|

|
 
 | PM-------------------------|

| E E E E E E E E E E E E E E E E
 
 |--------------------|-----------0-------|
 |--------------------|--4--4-------0h1---|
 |------4-----4-------|-----------------2-|
 |----4-----4-------4-|-------------------|
 |-2------3------2----|-------2-0---------|
 |--------------------|-------------------|

|-Rhy Fig 2 end Rhy Fig 2-|
w/Rhy Fig 2 x2
~~~~~~~~~~~~~~~~~~~~~~~~~
+W +Q. E E E E E
 
 |-------------------|--------------------|
 |-------------------|---------/5-4-------|
 |-(4)---------------|-(4)----------5-4---|
 |-------------------|------------------5-|
 |-------------------|--------------------|
 |-------------------|--------------------|

~~~
Q +E +E +E +E +Q +W
 
 |-------------------------------|-------------------|
 |-------------------------------|-------------------|
 |-------------------------------|-------------------|
 |-4---(4)b5r(4)-(4)-(4)b5r(4)---|-(4)---------------|
 |-------------------------------|-------------------|
 |-------------------------------|-------------------|

Q. E +E E Q +H +E +[7]Q.
 
 |-------------------|-----------------------||
 |-------------------|-----------------------||
 |-------------------|-----------------------||
 |-------------------|-----------------------||
 |-2-----3-(3)-3-2--|-(2)-----(2)-(2)-------||
 |-------------------|-----------------------||

|
| q E e +E E Q +H.. +E
 
 |-------------------|-----------------------||
 |-------------------|-----------------------||
 |--4---4-5-(5)-5-4--|-(4)--------------(4)/-||
 |--4---4-5-(5)-5-4--|-(4)--------------(4)/-||
 |--2---2-3-(3)-3-2--|-(2)--------------(2)/-||
 |-------------------|-----------------------||
 PM--| PM----| PM----------|

E S S E E E E E E a E S S +S S E a Q Q
 
 |-------------------|------------------------------|
 |-------------------|------------------------------|
 |---------9---------|------------------------------|
 |-9-------9---------|-10s12---11-(11)---9-9s11--9--|
 |-7-----------------|--9s10-9---------7---7s=9--7--|
 |---0-0-0---0-0-0-0-|------------------------------|

|-Rhy Fig 3
W E E E E E Q E
 
 |-------------------|-----------------------|
 |-------------------|--------------------|
 |-------------------|------------------------------|
 |-------------------|------------------------------|
 |-------------------|------------------------------|
 |-------------------|------------------------------|

|
| PM--| PM| PM--| PM-| PM
| E S S E E E E E E E E E E Q E E
 
 |-------------------|----------------0------0------|
 |---------------7---|----------------3------3------|
 |---------7-----7---|-----4----------2------2------|
 |---------7-----7---|-----4------------------------|
 |-5-5-5-5---5-5---5S|=2--------2--2------------2---|
 |-------------------|------------------------------|

end Rhy Fig 3-|
w/Rhy Fig 3 x3
Q E E H W
 
 |-------------------|------------------------------|
 |----------------------|------------------------------|
 |-------------------------|------------------------------|
 |-------------------------|------------------------------|
 |-------------------------|------------------------------|
 |-------------------------|------------------------------|

W W
 
 |-------------------|-----------------|
 |-------------------|-----------------|
 |-------------------|-----------------|
 |-------------------|-----------------|
 |-------------------|-----------------|
 |-------------------|-----------------|

W W
 
 |-------------------|------------------------------|
 |-------------------|------------------------------|
 |-------------------|------------------------------|
 |-------------------|------------------------------|
 |-------------------|------------------------------|
 |-------------------|------------------------------|

W E E E E E Q E
 
 |-------------------|-----------------------|
 |-------------------|--------------------|
 |-------------------|------------------------------|
 |-------------------|------------------------------|
 |-------------------|------------------------------|
 |-------------------|------------------------------|

Q E E H W
 
 |-------------------|------------------------------|
 |----------------------|------------------------------|
 |-------------------------|------------------------------|
 |-------------------------|------------------------------|
 |-------------------------|------------------------------|
 |-------------------------|------------------------------|

H Q E E E E E E E E Q
 
 |-------------------|-5/-----------0-------||
 |-----------------0-|----0-12-0-----------||
 |-------------------|------------4---------||
 |-------------------|----------------x----||
 |-------------------|----------------------||
 |-------------------|----------------------||

w/Rhy Fig 3 x4
~~~~~~~~~~
E Q. E E E E Q Q +Q Q
 
 |-------------------14b15-12-|----12-------14b16========(14)r-----|
 |------------------------|------------------------------------|
 |----------------------------|------------------------------------|
 |---x/-----------------------|------------------------------------|
 |----------------------------|------------------------------------|
 |----------------------------|------------------------------------|

Q E E E E E E E E Q E +E E E
 
 |---------------------16-17-|-19-19b21-----16pb17r(16)-------|
 |------------17-19b20-------|--------------------------17----|
 |---------16----------------|--------------------------------|
 |---------------------------|--------------------------------|
 |---------------------------|--------------------------------|
 |---------------------------|--------------------------------|

~~ ~~~~~~~
Q E E +H E E +E E E E +E E
 
 |-------------------------|---------------------------------------------|
 |--------17---------------|-------14b15r===(14)---12--------------------|
 |-16--------16-(16)-------|-------------------------------13b14r(13)p11-|
 |-------------------------|---------------------------------------------|
 |-------------------------|---------------------------------------------|
 |-------------------------|---------------------------------------------|

~~~~~~~ PM ~~~
Q E E +E E E E +E +E +E +E +S +S +S +S +E E
 
 |------------------------|---------------------------------------------------|
 |------------------------|---------------------------------------------------|
 |---------9-(9)s7---6b7==|=(6)r(6)b7==(6)r(6)b7==(6)r(6)b7==(6)r(6)-(6)-----|
 |-----------------7------|---------------------------------------------------|
 |------------------------|---------------------------------------------------|
 |------------------------|---------------------------------------------------|

~~~~~~~~~~~~
H E E E E +Q E +E +E E Q
 
 |----------------14b15-12-|----(12)-------17b19====(17)---(17)r------|
 |-------------12----------|------------------------------------------|
 |-------------------------|------------------------------------------|
 |-------------------------|------------------------------------------|
 |-------------------------|------------------------------------------|
 |-------------------------|------------------------------------------|

[B] [E] [E] [+E] [+E] [E] [E] [+E] [+E] [+E] [E] [E] [E]  
 
 |-------------19b21r(19)b21==(19)r-|---21b22==(21)r(21)-(21)-19-------|
 |----------------------------------|------------------------------22--|
 |----------------------------------|----------------------------------|
 |----------------------------------|----------------------------------|
 |----------------------------------|----------------------------------|
 |----------------------------------|----------------------------------|

~~~~~~~
Q E E +Q Q W
 
 |-19----------------------|------------------------------|
 |-------------------------|------------------------------|
 |--------21-21-(21)-------|------------------------------|
 |-------------------------|------------------------------|
 |-------------------------|------------------------------|
 |-------------------------|------------------------------|

E E Q E E E E Q E E +H
 
 |--------------------|------------()-------||
 |---0---------------0-|---------------------||
 |---------------------------|---------------------------||
 |---------------------------|---------------------------||
 |---------------------------|---------------------------||
 |---------------------------|---------------------------||

S S S S S S S S S S S S S S S S W
 
 ||-------------------h12--------------------------------h12-|---------------|
 ||o--------------h10-----h10------------------------h10-----|---------------|
 ||------------h7-------------h7------------------h7---------|---------------|
 ||--------h11-------------------h11----------h11------------|---------------|
 ||o----h9---------------------------h9----h9----------------|---------------|
 ||--h7---------------------------------h7-------------------|---------------|

||-Riff A
| PM|
| E E Q E E Q E E E E Q Q
 
 ||----------------------------------------------------------|---------0-----|
 ||o---------------------------------------------------------|---------0-----|
 ||---4----------------------------------4-------------------|---9-----------|
 ||---4----------------------------------4-------------------|---9--------9--|
 ||o--2----------------------------------2-------------------|---7--------7--|
 ||----------------------------------------------------------|---0-0-0-------|

|-Rhy Fig 4
S S S S S S S S S S S S S S S S W
 
 |---------------------h16-------------------------------------h14-|-----------------||
 |-----------------h14-----h14-----------------------------h12-----|----------------o||
 |-------------h11-------------h11---------------------h11---------|-----------------||
 |---------h14---------------------h14-------------h14-------------|-----------------||
 |-----h12-----------------------------h12-----h12-----------------|----------------o||
 |-h10-------------------------------------h10---------------------|-----------------||

| end Riff A-|
| PM|
| E E Q E E Q E E E E Q Q
 
 |-----------------------------------------------------------------|---------0-------||
 |-----------------------------------------------------------------|---------0------o||
 |---7---------------------------------------7---------------------|---9-------------||
 |---7---------------------------------------7---------------------|---9--------9----||
 |---5---------------------------------------5---------------------|---7--------7---o||
 |-----------------------------------------------------------------|---0-0-0---------||

end Rhy Fig 4-|
w/Rhy Fig 3 x6
E S S S S S S S S S S S S S S
 
 |-----------------|
 |-----------------------------------------------------------|
 |-----------------------------------------------------------|
 |-----------------------------------------------------------|
 |-----------------------------------------------------------|
 |-----------------------------------------------------------|

S S S S S S S S S S S S S S S S
 
 |-----------------------|
 |-----------------------------------------------------------------------|
 |-----------------------------------------------------------------------|
 |-----------------------------------------------------------------------|
 |-----------------------------------------------------------------------|
 |-----------------------------------------------------------------------|

S S S S S S S S S S S S S S S S
 
 |----------------------------------------------------------------|
 |-------------------------------------------------------|
 |-------------------------|
 |----------------------------------------------------------------|
 |----------------------------------------------------------------|
 |----------------------------------------------------------------|

S S S S S S S S S S S S S S E
 
 |---------------------------------------------0-0-0-|
 |---x-x-----------------------|
 |-----------------------------------------------------------|
 |-----------------------------------------------------------|
 |-----------------------------------------------------------|
 |-----------------------------------------------------------|

W +E E E E E E E E
 
 |-0-----------------|----(0)-x/------0----0----x--------|
 |-------------------|-----------------------------0-0-x/-|
 |-------------------|------------------------------------|
 |-------------------|------------------------------------|
 |-------------------|------------------------------------|
 |-------------------|------------------------------------|

2.5
E E E a +E +H +Q. E +H
 
 |--------------------------------|-------------------------|
 |-0-0----------------------------|-------------------------|
 |-------2b4r(2)b4==(2)-(2)-------|-(2)-----[2]---(2)r------|
 |--------------------------------|-------------------------|
 |--------------------------------|-------------------------|
 |--------------------------------|-------------------------|

~~~~
Q E E E E E E +Q E +E H
 
 |-----------------14b15-12-|----(12)-------14b16====(14)r----------|
 |--------------12----------|---------------------------------------|
 |--------------------------|---------------------------------------|
 |--------------------------|---------------------------------------|
 |--------------------------|---------------------------------------|
 |-/xs====x-0---------------|---------------------------------------|

Q E E E E E E E e Q E +E E E
 
 |---------------------16-17-|-19-19b21-----16pb17r(16)--------|
 |------------17-19b20-------|--------------------------17-----|
 |---------16----------------|-----------------------------16--|
 |---------------------------|---------------------------------|
 |---------------------------|---------------------------------|
 |---------------------------|---------------------------------|

~~~~~~~ ~~~~~~~~~~~~
E +E E E +Q E E +Q E E +E E Q
 
 |---------------------------------|--------------------------------------|
 |---------------------------17----|---------------17--------------17----|
 |-18b19r(18)---16-16-(16)------16-|----(16)-------------16---(16)--------|
 |---------------------------------|--------------------------------------|
 |---------------------------------|--------------------------------------|
 |---------------------------------|--------------------------------------|

E E Q E E E E E E E E +Q Q
 
 |-------------------------|-----------()--------|
 |-------------------|------------------x/----|
 |--------------------------------|------------------------------|
 |--------------------------------|------------------------------|
 |--------------------------------|------------------------------|
 |--------------------------------|------------------------------|

PM ~~~~~~~~~~~~ ~~~~~
E E Q E E E E +Q Q +H
 
 |----------------14b15-12-|----(12)-------17b19========(17)r-----|
 |-0-----------12----------|--------------------------------------|
 |-------------------------|--------------------------------------|
 |-------------------------|--------------------------------------|
 |-------------------------|--------------------------------------|
 |-------------------------|--------------------------------------|

E E +E +E +E +E +Q E E Q E +E +E E
 
 |---21---(21)b22==(21)r(21)b22==(21)r(21)---|-19-17-19---19b21==(19)r(19)-17--|
 |-------------------------------------------|---------------------------------|
 |-------------------------------------------|---------------------------------|
 |-------------------------------------------|---------------------------------|
 |-------------------------------------------|---------------------------------|
 |-------------------------------------------|---------------------------------|

~~ ~~~~~~~~~~~~~~
 
 |--3--| |--3--| |-3--|

Q E E +Q +E +E Q E S S S E S S S E S S S
 
 |-19-----------------------------|-------------------16h17p16p===0-10h12p10p0-9h10p9p|
 |--------17-17-(17)---(17)-(17)-|---------------------------------------------------|
 |--------------------------------|---------------------------------------------------|
 |--------------------------------|---------------------------------------------------|
 |--------------------------------|---------------------------------------------------|
 |--------------------------------|---------------------------------------------------|

~~~
 
 |--3--| |-3-| |-3-|

E S S S E S S S E S S S S S E E +E +H +E E
 
 |-0-7h9p==7p0---------------------|------------------------------||
 |-------------7h9p7p0-------------|------------------------------||
 |---------------------7h9p7s6h7s4h|=6b7==(6)-(6)------(6)r/------||
 |---------------------------------|------------------------------||
 |---------------------------------|------------------------------||
 |---------------------------------|------------------------------||

$
Rhy Fig 4 + Riff A x2 (both)
w/Rhy Fig 4 + Riff A x2 (both)
Gtr III
S S S S S S S S S S S S S S S S
 
 |-16-17p=16p12------12--16-17p=16p12----12--16-17p=16p=12-|
 |---------------17-------------------17-------------------|
 |---------------------------------------------------------|
 |---------------------------------------------------------|
 |---------------------------------------------------------|
 |---------------------------------------------------------|

S S S S S S S S S S S S S S S S
 
 |----12-16-17p16p12----12-16-17p16p12----12-16-17p==|
 |-17----------------17----------------17------------|
 |---------------------------------------------------|
 |---------------------------------------------------|
 |---------------------------------------------------|
 |---------------------------------------------------|

S S S S S S S S S S S S S S S S
 
 |--16p=12------12--16--17p=16p=12------12--16--17p=16p=12------12-|
 |----------17----------------------17----------------------17-----|
 |-----------------------------------------------------------------|
 |-----------------------------------------------------------------|
 |-----------------------------------------------------------------|
 |-----------------------------------------------------------------|

S S S S S S S S S S S S S S S S
 
 |-16-17p16p12----12-16-17p16p12----12-16-17p16p12--|
 |-------------17----------------17-----------------|
 |--------------------------------------------------|
 |--------------------------------------------------|
 |--------------------------------------------------|
 |--------------------------------------------------|

S S S S S S S S S S S S S S S S
 
 |----12--16-17p=16p=12-----12--16-17p16p12-----12--16--17p|
 |-17--------------------17------------------17------------|
 |---------------------------------------------------------|
 |---------------------------------------------------------|
 |---------------------------------------------------------|
 |---------------------------------------------------------|

S S S S S S S S S S S S S S S S
 
 |-16p12----12-16-17p16p12----12-16-17p16p12----12--|
 |-------17----------------17----------------17-----|
 |--------------------------------------------------|
 |--------------------------------------------------|
 |--------------------------------------------------|
 |--------------------------------------------------|

S S S S S S S S S S S S S S S S
 
 |--16--17p=16p=12------12--16--17p=16p=12------12--16--17p=16p=12-|
 |------------------17----------------------17---------------------|
 |-----------------------------------------------------------------|
 |-----------------------------------------------------------------|
 |-----------------------------------------------------------------|
 |-----------------------------------------------------------------|

To Coda
S S S S S S S S H [2/4] +Q E E
 
 |----12-16-17p16p12----12-0-----|-(0)------||
 |-17----------------17----------|----------||
 |-------------------------------|----------||
 |-------------------------------|--------x-||
 |-------------------------------|----------||
 |-------------------------------|----------||

|
| PM---|
| E E E E Q Q E E E E
 
 |-------------------------0-----|----------||
 |-------------------------0-----|----------||
 |--------9----------------------|--7s9-----||
 |--------9-------------------9--|--7s9---9-||
 |--------7-------------------7--|--5s7---9-||
 |--------0-----0-----0----------|--------7-||

[4/4] Gtr II
 
 PM--| PM------|

H E e E E E e E E E E E E H E e E E E Q E E E E E
 
 |------------------|-----------------|------------------|-------------------|
 |------------9-----|-7-9-------------|------------9-----|-12-12-------------|
 |------------7-----|-7---------------|------------7-----|--7--7---7-7-------|
 |--9-------x-----x-|-----x-x-9-9-9-9-|--9-------x-----x-|-------------9-9-9-|
 |------------------|-----------------|------------------|-------------------|
 |------------------|-----------------|------------------|-------------------|

|
| Gtr I
| PM--| PM| PM|
| +Q E E E E E E Q E E E E E E
 
 |------------------|-----------------|
 |------------------|-----------------|
 |------------7-----|-7-------7s9-----|
 |-(9)--------9-----|-9-------7s9---9-| w/Rhy Fig 5 x3
 |-(9)--------------|---------5s7---9-|
 |-(7)--7-7-7---7-7-|-----7-7-------7-|

|-Rhy Fig 5 end Rhy Fig 5-|
PM--|
H E E E E E e E E E E E E H E E E E H H
 
 |------------------|-----------------|------------------|--------16b17=========|
 |------------9-----|-7-9-------------|------------9-----|-9------17b18=========|
 |------------7-----|-7-9-----7-------|------------7-----|----------------------|
 |--9-------x-----x-|-----x-x---9---9-|--9-------x-----x-|-9--------------------|
 |------------------|-----------------|------------------|----------------------|
 |------------------|-----------------|------------------|----------------------|

+H +Q. E E Q E +Q +E E
 
 |-(16)------(16)r-------|-------------------------------|
 |-(17)------(17)r-------|-------------------------------|
 |-----------------------|--------[4]b6==([4])r==([4])-4-|
 |-----------------------|-------------------------------|
 |---------------------xs|=xsx--------------------------|
 |-----------------------|-------------------------------|

|
| +Q E E E E E E E E E E E E E E
 
 |-----------------------|-------------------------------|
 |-----------------------|-------------------------------|
 |-----------------------|-----------------7s==9---------|
 |--(9)------------9-----|-7-9-------------7s==9-------9-|
 |--(9)------------9-----|-7-9-------------5s==7-------9-|
 |--(7)--7-7---7-----7-7-|------7--7-------------------7-|

|-Rhy Fig 6 end Rhy Fig 6-|
w/Rhy Fig 6 x2.5
 
 ~~~~~~~~ PM----------|

E E E E E E E E +E E E S S S S S S S S S S
 
 |--------------------|-------------------------------|
 |--------------------|-------------------------------|
 |--2-----------------|------------------------6-7-9--|
 |-----4-2-1----2-4---|--------------7---6h7-9--------|
 |-----------/5-----5-|-(5)-5/---7h9---9--------------|
 |--------------------|-------------------------------|

S S S S S S S S S S S S S S S S
 
 |----------7-9h10p9p7----7-9p7-10p7-9p7-|
 |--7--9-10------------10----------------|
 |---------------------------------------|
 |---------------------------------------|
 |---------------------------------------|
 |---------------------------------------|

T T T
 
 |-----6------| |--3--|

S S S S S S S S S S S S S S S S S T T T T
 
 |----7-9-10p9p7h10p7-14p10-14p10p9p7-13s14s13h14p10p9p7-|
 |-10----------------------------------------------------|
 |-------------------------------------------------------|
 |-------------------------------------------------------|
 |-------------------------------------------------------|
 |-------------------------------------------------------|

T T T T
 
 |------6------| |-----6------| |-----6------| |-----6------|

S S S S S S S S S S S S S S S S S S S S S S S S
|-13s=14s13p10p9p7-13s14s13p10p9p7-13s14s13p10p9p7-13s14s13p10p9p7-||
 
 |------------------------------------------------------------------||
 |------------------------------------------------------------------||
 |------------------------------------------------------------------||
 |------------------------------------------------------------------||
 |------------------------------------------------------------------||

T T T T
 
 |-----6------| |-----6-----| |-----6-----|

S S S S S S S S S S S S S S E S S S S E
|-13s14s13p10p9p7-13s16p7s10-/17s18p17p13p10-17s18s17p13p10-|
 
 |-----------------------------------------------------------|
 |-----------------------------------------------------------|
 |-----------------------------------------------------------|
 |-----------------------------------------------------------|
 |-----------------------------------------------------------|

|
| PM---|
| E E E E E E E E
 
 |-----------------------------------------------------------|
 |-----------------------------------------------------------|
 |-----------------------------------------------------------|
 |--7--------9------------------8-------10--------------5----|
 |--7--------9------------------8-------10--------------5----|
 |------------------7----7------6--------8--------------3----|

T T T T
 
 |-----6------| |-----6-----| |-----6-----| |-----6-----|

S S S S E S S S S E S S S S E S S S S E
|-17s=18s17p13p10-17s18s17p13p10-17s18s17p13p10-17s18s17p13p10-|
 
 |--------------------------------------------------------------|
 |--------------------------------------------------------------|
 |--------------------------------------------------------------|
 |--------------------------------------------------------------|
 |--------------------------------------------------------------|

|
 
 | PM------------| PM------|

| +Q E E E E E E
 
 |--------------------------------------------------------------|
 |--------------------------------------------------------------|
 |--------------------------------------------------------------|
 |-(5)--------------------------------------5-------------------|
 |-(5)--------------------------------------5-------------------|
 |-(3)--------------3--------3-----3--------------3--------3----|

|-Rhy Fig 7
|--3--|
S S S +E E E +E Q +E
 
 |-17s18s17-(17)/--------20b22====(20)r=|
 |--------------------------------------|
 |--------------------------------------|
 |--------------------------------------|
 |------------------0-(0)---------------|
 |--------------------------------------|

|
| PM|
| E E E E E E E E
 
 |--------------------------------------|
 |--------------------------------------|
 |--------------------------------------|
 |--3---------5--------8s10---------5---|
 |--3---------5--------8s10---------5---|
 |----------------3-3--6s=8---------3---|

end Rhy Fig 7-|
w/Rhy Fig 7 x2
~~~~~~~~~
+E S +S +E E E E E E +Q Q S S S S S S S S
 
 |-(20)-17b18==(17)r(17)----------------|-------------------------------------|
 |-----------------------18-------17----|-------------------------------------|
 |--------------------------17s15-------|-------------15p12-15p12----15p12----|
 |-----------------------------------14-|-(14)---x/---------------12-------14-|
 |--------------------------------------|-------------------------------------|
 |--------------------------------------|-------------------------------------|

S S S S S S S S S S S S S S S S
 
 |----------------------------------------------------|
 |----------------------------------------------------|
 |-15p=12-15p12----15p12----15p12-15p12----15p12------|
 |--------------14-------14-------------14-------14---|
 |----------------------------------------------------|
 |----------------------------------------------------|
 |---3---|

S S S S S S E +E +E E E E
 
 |------------------------------------13---------|
 |-------------------13b15==(13)(13)r----15---14-|
 |-15p12-15p12-----------------------------------|
 |-------------14p12-----------------------------|
 |-----------------------------------------------|
 |-----------------------------------------------|

~~
 
 |--3---| |---3---| |---3---| |--3---|

E E E E E E E E E E E E Q +E E E a E E E
 
 |-----15----13------------------------------|-----------------------------||
 |-13-----14----15---14-13-------------------|----------------8s10-10-10---||
 |-------------------------15---12-10--------|-12---(12)sx---9s11-11-11---||
 |------------------------------------12s==8-|-----------------------------||
 |-------------------------------------------|-----------------------------||
 |-------------------------------------------|-----------------------------||

|
 
 | PM--------| PM---| PM-|

| +Q E E E E E E E E E E E E E E
 
 |-------------------------------------------|-----------------------------||
 |-------------------------------------------|-----------------------------||
 |-------------------------------------------|--------------7s===9--7------||
 |-(5)------------------------5--------------|--3-5---------7s===9--7--9---||
 |-(5)------------------------5--------------|--3-5---------5s===7--5--9---||
 |-(3)--------3----3-----3----------3----3---|--------3--3-------------7---||

w/Rhy Fig 6 x3
a E E E a E E E E E Q E E E Q E
 
 |----------------------------|-----------------|
 |-8s10--10-10-8s10-10-10-9---|-7---9-7-9-7-----|
 |-9s11--11-11-9s11-11-11-9---|-7---9-7-9-7-----|
 |--------------------------9-|-----9-7-9-7---9-|
 |----------------------------|-----------------|
 |----------------------------|-----------------|

E Q E E E E E E E E +E E Q.
 
 |-------------------|--------------------------|
 |-----7-------7-----|--------------------------|
 |-----7-------7---9-|-7-9-7-(7)-x/14tr16------|
 |--7------9-7---9-9-|-7-9-7-(7)-x/------------|
 |-------------------|--------------------------|
 |-------------------|--------------------------|

~~~~~~~~~
+E E Q E Q E +Q E E E E E E
 
 |---------------------19b22---19-|-(19)-----------14-16-17-|
 |--------------------------------|----------12s15----------|
 |-(14tr16)-14/-------------------|-------------------------|
 |--------------x/----------------|-------------------------|
 |--------------------------------|-------------------------|
 |--------------------------------|-------------------------|

~~~[2/4]~~~~~~
E E E E E E E E +E E Q
 
 |-------------------------|-------------||
 |-15----------------------|-------------||
 |-----16----0-------------|-------------||
 |--------14---12----------|-------------||
 |----------------14-12-14-|-(14)--------||
 |-------------------------|------x/-----||

|
| +Q E E E E E E Q Q
 
 |-------------------------|-------------||
 |-------------------------|-------------||
 |-------------------------|---4---------||
 |-(9)-------------9-------|---4---------||
 |-(9)-------------9-------|---2---------||
 |-(7)-----7-7--7-----7--7-|-------------||

w/Rhy Fig 2 x3
[4/4]  
W +E [/1]Q [/1] E [/1] Q [/1] [/1]E E
 
 |------------------|---------------------2h==3h==|
 |------------------|-----------4h==5-------------|
 |-/4---------------|-(4)h5-----------------------|
 |------------------|-----------------------------|
 |------------------|-----------------------------|
 |------------------|-----------------------------|

[/1] [/1] [/1] ~~~
Q. E +Q Q +W
 
 |-5p======3---(3)p==2-----|-(2)---------------|
 |-------------------------|-------------------|
 |-------------------------|-------------------|
 |-------------------------|-------------------|
 |-------------------------|-------------------|
 |-------------------------|-------------------|

~~~
W +W
 
 |-/7---------------|-(7)---------------|
 |------------------|-------------------|
 |------------------|-------------------|
 |------------------|-------------------|
 |------------------|-------------------|
 |------------------|-------------------|

~~~~
Q. E +Q Q +H +H
 
 |------------------19--|-(19)-----(19)--------||
 |--------19-(19)-------|----------------------||
 |-16-------------------|----------------------||
 |----------------------|----------------------||
 |----------------------|----------------------||
 |----------------------|----------------------||

|
| Q E E +E E Q +H.. +E
 
 |----------------------|----------------------||
 |----------------------|----------------------||
 |--4---4--5--(5)-5--4--|--(4)------------(4)/-||
 |--4---4--5--(5)-5--4--|--(4)------------(4)/-||
 |--2---2--3--(3)-3--2--|--(2)------------(2)/-||
 |----------------------|----------------------||

w/Rhy Fig 1
[/1]E [7]+Q E H W
 
 |-19---(19)-------------------|---------------------|
 |-----------------------------|---------------------|
 |-----------------------------|---------------------|
 |-----------------------------|---------------------|
 |-----------------------------|---------------------|
 |-----------------------------|---------------------|

W W
 
 |-----------------------|------------------|
 |-----------------------|------------------|
 |-----------------------|------------------|
 |-----------------------|------------------|
 |-----------------------|------------------|
 |-----------------------|------------------|

W W
 
 |-----------------------|---------------------|
 |-----------------------|---------------------|
 |-----------------------|---------------------|
 |-----------------------|---------------------|
 |-----------------------|---------------------|
 |-----------------------|---------------------|

7____________
W Q +H.
 
 |-----------------------|-------------||
 |-----------------------|-------------||
 |-----------------------|-------------||
 |-----------------------|-0----(0)----||
 |-----------------------|-------------||
 |-----------------------|-------------||

w/Rhy Fig 3 x4
[/] ~~~~~~~~~~~~
+Q Q E E E E +Q E +E H
 
 |------------------14b15-12-|----(12)-------14b16====(14)r----------|
 |---------------12----------|---------------------------------------|
 |---------------------------|---------------------------------------|
 |-(0)-----------------------|---------------------------------------|
 |---------------------------|---------------------------------------|
 |---------------------------|---------------------------------------|

E E E E E E E E E E Q E +E E E
 
 |-------------------16-17-19-|-19-19b21-----16pb17r(16)--------|
 |--------17-19b21------------|--------------------------17-----|
 |---16-----------------------|-----------------------------16--|
 |----------------------------|---------------------------------|
 |----------------------------|---------------------------------|
 |----------------------------|---------------------------------|

~~ ~~~~~~~
Q E E +Q +E E E E E E E E E E
 
 |-----------------------------|-----------------------------------|
 |-17--------------------------|-------------------------------|
 |--------16-16-(16)---(16)---|---------------------------------------------|
 |-----------------------------|---------------------------------------------|
 |-----------------------------|---------------------------------------------|
 |-----------------------------|---------------------------------------------|

Q E E +E E E E E E E E E E Q
 
 |-----------()---------|---------0-------|
 |--------------------------|--------------------------|
 |-----------------------------------|-----------------------------|
 |-----------------------------------|-----------------------------|
 |-----------------------------------|-----------------------x----|
 |-----------------------------------|-----------------------------|

~~~~~~~~~~~~ ~~~~~
Q. E E E E E +Q Q +E +Q.
 
 |------------------14b15-12-|----(12)-------17b19========(17)-(17)r----|
 |---------------12----------|------------------------------------------|
 |---------------------------|------------------------------------------|
 |---------------------------|------------------------------------------|
 |---------------------------|------------------------------------------|
 |-0--------x/---------------|------------------------------------------|

Q E E +E +Q E S E. +Q +E. S E E
 
 |---------19b21==(19)r(19)---21-|---21b23====(21)r==(21)-19------|
 |-------------------------------|-----------------------------22-|
 |-------------------------------|--------------------------------|
 |-------------------------------|--------------------------------|
 |-------------------------------|--------------------------------|
 |-------------------------------|--------------------------------|

~~~~
Q E E +Q. E
 
 |-19----------------------|
 |-------------------------|
 |--------20-20-(20)-------|
 |-------------------------|
 |-------------------------|
 |-------------------------|
 |--3---| |---3---| |--3--| |--3--|

E S S S E S S S E S S S E S S S
 
 |-------16h17p=16p=0-14h16p==14p0-12h14p12p0-10h12p10p=|
 |------------------------------------------------------|
 |------------------------------------------------------|
 |------------------------------------------------------|
 |------------------------------------------------------|
 |------------------------------------------------------|

D.S. al Coda
~~~~~~~
 
 |--3---| |-3--| |-3-|

E S S S E S S S E S S S E S +S +Q. +E +Q +Q
 
 |-0-9h10p==9p0-----------------------------|--------------------------||
 |--------------9h10p9p0-7h9p7p0------------|--------------------------||
 |-------------------------------6b7r(6)b7==|=(6)-----(6)-(6)--(6)r---||
 |------------------------------------------|--------------------------||
 |------------------------------------------|--------------------------||
 |------------------------------------------|--------------------------||

&
w/Riff A x2
Gtr III
1.5
H.. +E +Q Q H
 
 |-(0)--------------------------------------------------(0)-----|-(0)--------------|
 |--------------------------------------------------------------|------------------|
 |--------------------------------------------------------------|------------------|
 |--------------------------------------------------------------|------------------|
 |--------------------------------------------------------------|------------------|
 |--------------------------------------------------------------|------------------|

|
| Gtr I
| PM--|
| H +E Q. +E E E E H
 
 |--------------------------------------------------------------|-------------0----|
 |--------------------------------------------------------------|-------------0----|
 |--4-----------------------------(4)---------------------------|------------------|
 |--4-----------------------------(4)-----7---------------------|-(7)--------------|
 |--2-----------------------------(2)-----4---------------------|-(4)--------------|
 |--------------------------------------------------------------|-------0-0-0------|

|-Rhy Fig 8
PM--|
W E E E E E E E E
 
 |-------------------------------------------------------------------|-----------------|
 |-------------------------------------------------------------------|-----------------|
 |-------------------------------------------------------------------|-----7-7-6-4-4---|
 |-------------------------------------------------------------------|---------------7-|
 |-------------------------------------------------------------------|-----------------|
 |-------------------------------------------------------------------|-----------------|

[
[PM--|
[ H +E Q. +E E E E H
 
 |-------------------------------------------------------------------|-----------0-----|
 |-------------------------------------------------------------------|-----------0-----|
 |--------------------------------------------2----------------------|-(2)-------------|
 |---4------------------------------(4)-------2----------------------|-(2)-------------|
 |---5------------------------------(5)------------------------------|-----------------|
 |-------------------------------------------------------------------|-----0-0-0-------|

end Rhy Fig 8-|
w/Rhy Fig 8
|-3--|
+E E E E +E E Q S S S E E S S E E E E
 
 |-----------------------------------------------------------|-------------------------|
 |-----------------------------------------------------------|-------------------------|
 |-----------------4-----------------------------------------|-------------------------|
 |-(6)h=====7--------------7-----(7)-----4h=====6------------|--4h=6p4s2-4-2h4p2-------|
 |-----------------------------------------------------------|-------------------5-4p2-|
 |------------------

Important: The song above is NOT stored on the Chordie server. The original song is hosted at www.azchords.com. Chordie works as a search engine and provides on-the-fly formatting. Chordie does not index songs against artists'/composers' will. To remove this song please click here.

Text color:
Chord color:
Chord grids: 
Font size:    
Page size: 

B E
Rate #4 of 6 versions

Login - add to songbook

SHARE PAGE  




You need to log in to post comments