Guitar Tabs, Chords and Lyrics
Major upgrade!! After one year development the new version of Chordie is now online! Please give feedback.


My Sweet Lady  John Denver

INTRO:
 
 ------
 e|-----9----------9--------------------------7-----------|
 B|--------10---------10------10--------8-----------8-----|
 G|------------11---------11---------9-----9-----9-----9--|
 D|--0----------------------------0-----------------------|
 A|-------------------------------------------------------|
 E|-------------------------------------------------------|
 e|-------------5-----------------------5--------|
 B|--------7-------7--------------7--------7-----|
 G|-----7-----7-------7--------6-----6-----------|
 D|---0-------------------0-0-----------------6--|
 A|----------------------------------------------|
 E|----------------------------------------------|

VERSE:
 
 ------
 e|-----------11--------11-----------------7-----------|
 B|-------10--------10------10-------8-----------8-----|
 G|----9---------9----------------9-----9-----9-----9--|
 D|-0--------------------------0-----------------------|
 A|----------------------------------------------------|
 E|----------------------------------------------------|
 e|------------5----------5------3----------3--------|
 B|---------7----------7------------3----------3-----|
 G|------7----------6----------4----------3----------|
 D|---0----------0----------0----------0-------------|
 A|--------------------------------------------------|
 E|--------------------------------------------------|
 e|-----------2-----------2-----------0-----------2--|
 B|--------3-----------2-----------3-----------2-----|
 G|-----2-----------2-----------2-----------2--------|
 D|--0-----------0-----------0-----------0-----------|
 A|--------------------------------------------------|
 E|--------------------------------------------------|
 e|--------------0----------------------------------|
 B|-----------0-----0------------------2--2--3--5---|
 G|---------0----------0-----------2----------------|
 D|------2----------------2-------------------------|
 A|---2----------------------2--0-------------------|
 E|-------------------------------------------------|
 e|----------9------9------9------------7-----7-----7-----|
 B|-------------10-----10-----10-----------8-----8-----8--|
 G|------11--------------------------9--------------------|
 D|---0---------------------------0-----------------------|
 A|-------------------------------------------------------|
 E|-------------------------------------------------------|
 e|-------------5-----------5--------3-----------3-------|
 B|----------7-----------7--------------3-----------3----|
 G|---- --7-----------6-----------4-----------3----------|
 D|----0-----------0-----------0-----------0-------------|
 A|------------------------------------------------------|
 E|------------------------------------------------------|
 e|--------2-----------2-----------------------------|
 B|------------2-----------2--------0-----------2----|
 G|-----2-----------2-----------------0-----------2--|
 D|--0-----------0--------------2-----------2--------|
 A|--------------------------2-----------0-----------|
 E|--------------------------------------------------|

VERSE END:
 
 ----------

FINAL END
 
 e|------------2-----------2-----------|---2---|
 B|---------3-----------1--------------|---3---|
 G|------2-----------2-----------------|---2---|
 D|---0-----------0--------------------|---0---|
 A|------------------------------------|---0---|
 E|----------------------------------|---0---|

CHORUS:
 
 -------

Cl[G]ose your eyes a[A]nd rest your weary mi[D]nd[D7]
I pr[G]omise I will s[A]tay right here besi[D]de you[D7]
Tod[G]ay our lives were jo[A]ined, became entwi[D]ned
I w[Bm]ish that you could k[Bm7]now how much I l[Em]ove y[A]ou
CHORDS:
 
 -------

[G] [A] [D] [D7] [Bm] [Bm7] [Em]  
 
 e|----3----0----2----2----2----2----0----|
 B|----3----2----3----1----3----3----0----|
 G|----0----2----2----2----4----2----0----|
 D|----0----2----0----0----4----4----2----|
 A|----2----0--------------2----2----2----|
 E|----3-----------------------------0----|
 --------------------------------------------
 ---------------------------------------------


Important: The song above is NOT stored on the Chordie server. The original song is hosted at www.azchords.com. Chordie works as a search engine and provides on-the-fly formatting. Chordie does not index songs against artists'/composers' will. To remove this song please click here.

Text color:
Chord color:
Chord grids: 
Font size:    
Page size: 

A Bm Bm7 D D7 Em G
Rate #2 of 7 versions

Jango Player

Login - add to songbook

SHARE PAGE  




You need to log in to post comments