Guitar Tabs, Chords and Lyrics
Server problems seems to be fixed. Chordie has been experiencing problems with songs disappearing. These issues now seems to be fixed, but still verifying the fix. If you find anything strange, please email admin@chordie.com.


Almost Saturday Night  John Fogerty

(Live)
The live version fron John Fogerty's "Premonition", but also his compilation "The Long Road Home".
 
 E--------------------------------|-------------------------------------|
 B--6-5-5-6-8--------5-5-----5-5--|--6-5-5-6-8-------6-5----------------|
 G------------5----7-------7------|------------5---------7-5---5--------|
 D--------------------------------|--------------------------7----------|
 A--------------------------------|-------------------------------------|
 E--------------------------------|-------------------------------------|
 E--------------------------------|-------------------------------------|
 B--6-5-5-6-8--------5-5-----5-5--|-5-----------------------------------|
 G------------5----7-------7------|---5-5-4-4-2-2-0---------------------|
 D--------------------------------|-----------------2-3-2-0-2-3-2-0-2---|
 A--------------------------------|-----------------------------------3-|
 E--------------------------------|-------------------------------------|

[C] Outside my [F]window
[C] I can hear the [F]radio
And you k[C]now that motor w[Am]agon's getting ready to [Em]fly
Cause it's [G]almost Saturday [C]night
[C] Bye bye t[F]omorrow
[C] Jody's gone to the r[F]odeo
And you [C]know some good old [Am]boys are ready to [Em]ride
Cause it's a[G]lmost Saturday n[F]ight
Gonna push the clouds a[C]way
let the music have it's [F]way
Let it s[Dm]teal my heart a[C]way, and you kn[G]ow I'm going
[C] Outside the r[F]inging
[C] the night train is br[F]ingin' me home
When you [C]hear that locomo[Am]tion get ready to f[Em]ly
Cause it's [G]almost Saturday n[C]ight
[F] Gonna push the clouds a[C]way
let the music have it's [C]way
Let it [Dm]steal my heart a[C]way, and you kn[G]ow I'm going
[C] Outside the r[F]inging
[C] the night train is br[F]ingin' me home
When I [C]hear that locomo[Am]tion get ready to f[Em]ly
Cause it's [G]almost Saturday [C]night

Important: The song above is NOT stored on the Chordie server. The original song is hosted at www.azchords.com. Chordie works as a search engine and provides on-the-fly formatting. Chordie does not index songs against artists'/composers' will. To remove this song please click here.

Text color:
Chord color:
Chord grids: 
Font size:    
Page size: 

Am C Dm Em F G
Rate #1 of 5 versions

Login - add to songbook

SHARE PAGE  



You need to log in to post comments