Guitar Tabs, Chords and Lyrics
Major upgrade!! After one year development the new version of Chordie is now online! Please give feedback.


Going Inside  John Frusciante

John Frusciante, Going Inside.
 
 -=-=-=-=-=-=-=-=-=-=-=-=-=-=-=-=-=-=-=

John Frusciante - Going Inside 3:36
 
 -=-=-=-=-=-=-=-=-=-=-=-=-=-=-=-=-=-=-=

L & M: John Frusciante
Track 1 From:
To Record Only Water For Ten Days
2000 Niandra Lades Music BMI.
 
 -=-=-=-=-=-=-=-=-=-=-=-=-=-=-=-=-=-=-=

Intro: Gm C (D# C)
1° Guitar: (Distorted) Or Maybe John's Voice.
2° Guitar:
[Gm] [C] [D#] [C] [D#] [C]  
 
 E|---3----3---|---3----3---|-------------------------|------------------------|
 B|---3----3---|---5----5---|-------------------------|------------------------|
 G|---3----3---|---5----5---|-----10-------------7----|-----10-------------7---|
 D|---5----5---|---5----5---|--8------8-------5-----5-|--8------8-------5-----5|
 A|---5----5---|---3----3---|6-------------3----------|6-------------3---------|
 E|---3----3---|---X----X---|-------------------------|------------------------|

[Gm]You don't throw your life aw[F]ay
[C]Going in[Gm]side
[Gm]You get to know who [F]watching you
[C]And you dec[Gm]ide who resides
[Gm]In your [F]body
[C]Where you're slow
[Gm]Where you go, doesn't matter
[Gm]Cos there will come a time
[F]When time goes out[C] the windo[Gm]w
[Bb]And you'll learn to dr[F]ive out of focus
[Cm]I'm you[Gm]
[Bb]And if anyt[F]hing unfolds,
[Cm]It's supposed [Eb]to
Ooo
-=-=-
Intro
-=-=-
-=-=-=-
Verse 2
-=-=-=-
[Gm]You don't throw your [F]time away
[C]Sitting s[Gm]till
[Gm]I'm in a chain of [F]memories
[C]It's my wi[Gm]ll
[Gm]And I had to consult[F] some figures
[C]Of the past[Gm]
[Gm]And I know so[F]meone after me
[C]Will go right b[Gm]ack
[Bb]I'm not [F]telling
[Cm]A view[Gm]
[Bb]I've got this [F]night
[Cm]To unglue[Eb]
[Bb]I'll loot this [F]spite a[Cm]way[Gm]
[Bb]By doing things there's [F]no reason
[Cm]To do[Eb]
Outro:
 
 E|-1--1--1---1--1--1---3--3--3--3--3--3-|----------------------------|
 B|-3--3--3---1--1--1---5--5--5--5--5--5-|----------------------------|
 G|-3--3--3---2--2--2---5--5--5--5--5--5-|-----10-------------7-------|
 D|-3--3--3---3--3--3---5--5--5--5--5--5-|--8------8-------5-----5----|
 A|-1--1--1---3--3--3---3--3--3--3--3--3-|6-------------3-------------|
 e|-----------1--1--1--------------------|----------------------------|
 E|-1-1-1-1-1-|----------------------------|X 2 |--3-3--|
 B|-1-1-1-1-1-|----------------------------| |--3-3--|
 G|-2-2-2-2-2-|-----10-------------7-------| |--3-3--|
 D|-3-3-3-3-3-|--8------8-------5-----5----| |--5-5--|
 A|-3-3-3-3-3-|6-------------3-------------| |--5-5--|
 e|-1-1-1-1-1-|----------------------------| |--3-3--|

||End On Gm||
Chords:
[Gm] [C] [F] [Bb] [Eb] [Cm]  
 
 E|-3-|-3-|-1-|-1-|-6-|-3-|
 B|-3-|-5-|-1-|-3-|-8-|-4-|
 G|-3-|-5-|-2-|-3-|-8-|-5-|
 D|-5-|-5-|-3-|-3-|-8-|-5-|
 A|-5-|-3-|-3-|-1-|-6-|-3-|
 e|-3-|-X-|-1-|-X-|-X-|-X-|
 -=-=-=-=-=-=-=-=-=-=-=-=-=--=-=-=-=-=--=-=-=-=-=-=-=-=-=-=-=-=-=--=-=-=-=-=--

Produce By John Frusciante
Mixed By Jimmy Boyled
Mixing Assisted By Brian Grimmel
Mastered By Vlado Meller At Sony Music Studio, New York.
 
 -=-=-=-=-=-=-=-=-=-=-=-=-=--=-=-=-=-=--=-=-=-=-=-=-=-=-=-=-=-=-=--=-=-=-=-=-- 


Important: The song above is NOT stored on the Chordie server. The original song is hosted at www.azchords.com. Chordie works as a search engine and provides on-the-fly formatting. Chordie does not index songs against artists'/composers' will. To remove this song please click here.

Text color:
Chord color:
Chord grids: 
Font size:    
Page size: 

Bb C Cm D# Eb F Gm
Rate #1 of 12 versions

Jango Player

Login - add to songbook

SHARE PAGE  




You need to log in to post comments