Guitar Tabs, Chords and Lyrics
Login is temporarily disabled for some users. Do not panic. Will be back in an hour or two. DO NOT REREGISTER!!


Mascara  John Frusciante

There's a belt o[F#m]f sun dripping through a porthole[A]
[B]In [Bm]a set design
[A]Can you read your [E]name?
[Bm]It's been so long since we blew from the i[F#m]nside
[G]So where have you [Bm]been since you [C]fell off the flat [D#]edge[D#] [F]
[G]Of the world under an ugly sky[D#] [F]
[G]You've been lying by[D#] [F]
[G]But they meant you, [D#] [F]
[D#]dance under the moonlight[D#] [F]
Do what you think is the sum
Of the flesh and blood
Above there's small birds gone to trembling
In for thousands of your years
(guitar tuned down 1/2 step or slowed down!)
[Am]You f[Am/E]elt like c[Am]rysta[Am/E]l in your [Am]thigh[Am/E]s
You're the one that makes me realize
[E]people flowing through to t[B]omorrow Through to your vacation
E B A G F#*
Apples and cake must have been your stake but the smile you send in my direction
[Am]Makes[Am/E] me feel l[Am]ike I[Am/E]'m alive Y[Am]ou're[Am/E] hidden by your wooden legs
Stay here in down at the world's edge, for a time
[E]It always makes me feel good to know you're [B]alive
E B A G F#*
I finally realized you must have bittenyour snake
[B]I've [D]been [A]insane [G]well the time is s[F#]low
The Pope don't matter when the pawn is your sea, don't you agree?
When you're around I'm wound around your thumb.
You wanna be numb inside the gun.
To you I'm sure it's no surprise that I could be one of the dead.
Thank god my underwear's full of lead without you. Without you.
[Em] [Am]  
 
 e|-------------------------------------------------------------------|
 B|-13p12----12----------------------15p13-12-13--12-----------12-----|
 G|-------12-----12--------12------------------------12----12-----12--|
 D|-----------------14-12-----14------------------------14------------|
 A|-------------------------------------------------------------------|
 E|--------------------------(12)(0)----------------------------------|

[Em] [Am] [Cmaj7]  
 
 e|-------------------------------------------------------------------|
 B|-13p12----12---------------------15p13-12-13--12-----------12------|
 G|-------12-----12--------12b-r--------------------12----12------12--| bend
 D|-----------------14-12-------14---------------------14-------------| 1/2
 A|-------------------------------------------------------------------| step
 E|-------------------------------------------------------------------|

[B]  
 
 e|------------------|
 B|------------------| btw: this is identical to the 'outside space'
 G|-12-11---12-11----| main lick.
 D|-------9-------9--|
 A|------------------|
 E|------------------|


Important: The song above is NOT stored on the Chordie server. The original song is hosted at www.azchords.com. Chordie works as a search engine and provides on-the-fly formatting. Chordie does not index songs against artists'/composers' will. To remove this song please click here.

Text color:
Chord color:
Chord grids: 
Font size:    
Page size: 

A Am Am/E B Bm C Cmaj7 D D# E Em F F# F#m G
Rate #2 of 15 versions

Jango Player

Login - add to songbook

SHARE PAGE  



You need to log in to post comments