Guitar Tabs, Chords and Lyrics
Major upgrade!! After one year development the new version of Chordie is now online! Please give feedback.


Ratiug  John Frusciante

Hope you enjoy!
Intro
C#m E x2
Verse
[C#m] I need a taste, I can almost face mysel[E]f
[C#m] There is a way, a never-ending pavement cas[E]t
[C#m]Land on a date such a long, long way, way ba[E]ck
[C#m] Which has a crave for the path that ends in bl[E]ack
Prechorus
F#m A C#7 Aaug Ddim
I gotta fade another day
[F#m] I can taste it, I can fe[A]el it [C#7b9] Aaaaaaaa[C#7]ah [Ddim] [(C#)]
Chorus
[Bbm] And you can h[C#]ave, you can h[G#]ave my f[F#]ace right no[Bbm]w [C#]Yeaa[G#]eeaa[F#]hh oooh
[Bbm] Standing b[C#]ack from the [G#]lap[F#]se
C#m E Eb Gaug
Children are what you are
C#m E x2
Verse 2
[C#m]Tim Gilbert weighs internally more than the scales s[E]ay
C[C#m]arries a weight such that no eyes see in ai[E]r
[C#m]Jean Nealy views from a place where time is fl[E]at
[C#m] She sees a haze that could penetrate more bla[E]ck
Prechorus
F#m A C#7 Aaug Ddim
She's gotta seize who sees
[F#m] And she wants to live in l[A]ightning
[C#7b9]God, (God shrinking multiplic[C#7]ity you are)
You, are[(Ddim)]
Chorus
[Bbm] And you can h[C#]ave, you can h[G#]ave my f[F#]ate right no[Bbm]w[C#] [G#] [F#]
[Bbm] Another g[C#]rave, another [G#]bla[F#]nk
C#m E Eb Gaug
Children are what you are
[Bm] Landsc[D]apes come and p[A]ass my w[G]ay
Dm F G#aug
Vision goes in a car
[Cm] What you s[D#]ay, another[A#] da[G#]y
D#m F# Aaug/C# Aaug
Above you, you mostly are
[Bbm] And in the cr[C#]adle, a n[G#]ewborn b[F#]abe
C#m E Gaug/B Gaug*
Is a dot in the war
[Cm] Spreads its w[D#]ings, inter[A#]ven[G#]es
D#m F# Aaug/C# (Aaug)
Human atop a star
Rap Part
[Bbm] [G#] [Ebm] [F#] [(G#)]  
Recommended ways to play some chords:
C#7 Aaug Ddim C#7b9 Gaug
 
 |-----x-----|------x------|------x------|-----x-----|-----x-----|
 |-----2-----|------2------|------6------|-----3-----|-----8-----|
 |-----4-----|------2------|------7------|-----4-----|-----8-----|
 |-----3-----|------3------|------6------|-----3-----|-----9-----|
 |-----4-----|------4------|------5------|-----4-----|----10-----|
 |-----x-----|------x------|------x------|-----x-----|-----x-----|

G#aug Aaug/C# Gaug/B Gaug*
 
 |-----x-----|-----x-----|-----x-----|-----x-----|
 |-----9-----|-----x-----|-----x-----|-----x-----|
 |-----9-----|----10-----|-----8-----|----(4)----|
 |----10-----|--- 11-----|-----9-----|-----5-----|
 |----11-----|----12-----|----10-----|-----6-----|
 |-----x-----|-----9-----|-----7-----|-----3-----|


Important: The song above is NOT stored on the Chordie server. The original song is hosted at www.azchords.com. Chordie works as a search engine and provides on-the-fly formatting. Chordie does not index songs against artists'/composers' will. To remove this song please click here.

Text color:
Chord color:
Chord grids: 
Font size:    
Page size: 

A A# Bbm Bm C# C#7 C#7b9 C#m Cm D D# Ddim E Ebm F# F#m G G#
Rate #1 of 2 versions

Jango Player

Login - add to songbook

SHARE PAGE  




You need to log in to post comments