Guitar Tabs, Chords and Lyrics
Update 25:10. 13:00. Site is back up running again. Songbooks are recovered. Woring on getting search back up..


Your Warning  John Frusciante

(Verse)
[G] You're [C]warning m[G]e to get [C]out of the w[G]ay
Was the [C]safest th[Em]ing to s[D]ay
[G] This [C]trying to [G]get out of [C]a tight s[G]pot
Isn't [C]even w[Em]orth a sho[D]t
And [G]all of the [C]world calls [G]out at o[C]nce
[G]give us pa[C]in
It's a fri[Em]end to us[D]
And [G]we don't de[C]cide for our[G]selves very muc[C]h
what [G]we are we o[C]we to the f[Em]ear of lo[D]ve
(Verse 2)
[G] Don't [Am]bring it ar[Bm]ound
I've re[C]ached for th[G]at
I've r[Am]eached for t[Bm]hat[C]
[G] Once [Am]it is fo[Bm]und
It tu[C]rns its ba[G]ck
It t[Em]urns its ba[D]ck
(Verse 3)
Em* Bm
Once it is called when you're married
and you've [C]fallen out of l[G]ove[D]
Em* Bm
What's it called when the family
you [C]raised you don't know at a[G]ll[D]
(Verse 4)
Bm D C Em*
Give us a point to miss
 
 E|-------------------------|
 B|-8-10-8---5-7-8---0---0--|
 G|------------------0??--0--|
 D|------------------2??--2--|
 A|-7--------5-------3??--3--|
 E|-------------------------|

Endings are killing me slow
Bm D C Em*
I only ask for this
 
 E|-------------------------|
 B|-8-10-8---5-7-8---0---0--|
 G|------------------0??--0--| x8
 D|------------------2??--2--|
 A|-7--------5-------3??--3--|
 E|-------------------------|

Emptiness replace my soul
Emptiness replace my soul
And so replace my soul
And so replace my soul
Now now
(Outro)
 
 E|----------------10-----7------|-------------------------|
 B|-8-10-8--5-7------------------|-8-10-8--7-5-3-----5-----|
 G|------------------------------|-------------------------|
 D|------------------------------|---------0---------------|
 A|-7-------5--------------------|-7-----------------3---3-|
 E|-----------------------8---8--|-------------------------|
 E|----------------10-----7------|-------------------------|
 B|-8-10-8--5-7------------------|-8-10-8--7-5-3-----5-----|
 G|------------------------------|-------------------------|
 D|------------------------------|---------0---------------|
 A|-7-------5--------------------|-7-----------------3-----|
 E|-----------------------8---8--|-------------------------| 


Important: The song above is NOT stored on the Chordie server. The original song is hosted at www.azchords.com. Chordie works as a search engine and provides on-the-fly formatting. Chordie does not index songs against artists'/composers' will. To remove this song please click here.

Text color:
Chord color:
Chord grids: 
Font size:    
Page size: 

Am Bm C D Em G
Rate #4 of 5 versions

Jango Player

Login - add to songbook

SHARE PAGE  



You need to log in to post comments