Guitar Tabs, Chords and Lyrics
Server problems seems to be fixed. Chordie has been experiencing problems with songs disappearing. These issues now seems to be fixed, but still verifying the fix. If you find anything strange, please email admin@chordie.com.


Very First Time  John Fullbright

Tuning: Standard E-A-D-G-B-E Cappo 5th fret Key of Fmaj
Chords Used
Only chord shapes are demonstrated, and do not indicate actual notes in play
[C] [G] [F] [D7sus2] [Am] [Em]  
 
 e|--0-----3----1----0-------0-----0--------------------------------------------------|
 B|--1-----3----1----1-------1-----0--------------------------------------------------|
 G|--0-----0----2----2-------2-----0--------------------------------------------------|
 D|--2-----0----3----0-------2-----2--------------------------------------------------|
 A|--3-----2----3----x-------0-----2--------------------------------------------------|
 E|--x-----3----1----x-------x-----0--------------------------------------------------|

Intro F-C-D7sus2-G-C
 
 e|--1----1------------------0--------------------|
 B|--1----1-------1----1--3--1-3---1-1----1-------|
 G|--0h2--0h2--0--0---0-0--0-2-0-0--0-0-0-0-------|
 D|--3----3----3--2--2-------0-0-2-----2----------|
 A|---------------3--------------3--------3-------|
 E|----------------------------3------------------|

Don't answer the phone[C] [F] Don't answer the door[C] [F] Pretend no[C]body
Lives ar[Am]ound here Any mo[Em]re[G]
No need to get up[C] [F] I brought the wi[C]ne [F]
And I feel al[C]right For the v[D7sus2]ery F[G]irst T[C]ime
And I believe I'm protecte[C]d [F] By the things I can't [C]see [F] I don't believe in J[C]esus
I'm [Am]told he Belie[Em]ves in me[G]
And I think that's good[C] [F] Cuz it's a long hard c[C]limb[F]
And I feel al[C]right For the [D7sus2]very F[G]irst T[C]ime
And the th[Em]ings I don't rem[F]ember Don't [C]matter Any more
And the t[Em]hings I need to [F]do Are all [D7sus2]waiting At the do[G]or
So don't answer the door[C] [F] Don't pick up the phon[C]e [F] Don't leave me [C]here
Cuz [Am]I hate To b[Em]e alone[G]
Between love everl[C]asting [F] And meaningless r[C]hyme[F]
Sits feeling[C] good For the [D7sus2]very [G]First T[C]ime[F]
I feel a[C]lright For the [D7sus2]very [G]First [C]Time

Important: The song above is NOT stored on the Chordie server. The original song is hosted at www.azchords.com. Chordie works as a search engine and provides on-the-fly formatting. Chordie does not index songs against artists'/composers' will. To remove this song please click here.

Text color:
Chord color:
Chord grids: 
Font size:    
Page size: 

Am C D7sus2 Em F G
Rate #1 of 1 versions

Login - add to songbook

SHARE PAGE  



You need to log in to post comments