Guitar Tabs, Chords and Lyrics
Major upgrade!! After one year development the new version of Chordie is now online! Please give feedback.


Hold On  John Lennon

INTRO
[E] [F#m7] 
[1] [+] [2] [+] [3] [+] [4] [+] [1] [+] [2] [+] [3] [+] [4] [+] [1] [+] [2] [+] [3] [+] [4] [+] [1] [+] [2] [+] [3] [+] [4] [+]  
 
 e|129-------9-----|----------------|--2---2---------|--2---2---------|
 B|9-9---12--9-----|-----------9----|--2---2---------|--2---2---------|
 G|9-----9---9-----|--9??--9----9----|--2---2---------|--2---2---------|
 D|9-----9---9-----|--9---9h11-9----|--2---2-------2-|--2---2---------|
 A|----------------/11--11-------11\|4-----------24-4|4---------------|
 E|0-------------0-|----------------|2------------h-h|2-------------0-|

VERSE
[E] [F#m7] 
[1] [+] [2] [+] [3] [+] [4] [+] [1] [+] [2] [+] [3] [+] [4] [+] [1] [+] [2] [+] [3] [+] [4] [+] [1] [+] [2] [+] [3] [+] [4] [+]  
 
 e|129-------9-----|----------------|--2---2---------|--2---2---------|
 B|9-9---12--9-----|-----------9----|--2---2---------|--2---2---------|
 G|9-----9---9-----|--9??--9----9----|--2---2---------|--2---2---------|
 D|9-----9---9-----|--9---9h11-9----|--2---2-------2-|--2---2-------2-|
 A|----------------/11--11-------11\|4-----------24-4|4-----------24--|
 E|0-------------0-|----------------|2------------h-h|2------------h--|

[G#m7] [A6] [B6]  
[1] [+] [2] [+] [3] [+] [4] [+] [1] [+] [2] [+] [3] [+] [4] [+]  
 
 e|--4---4---------|------7---------|
 B|--4---4---------|--7---9---------|
 G|--4---4---------|--6---8---------|
 D|--4---4---------|--7---9---------|
 A|6---------------|----------------|
 E|4---------------|5-----7---------|
 ---------------------------------------------------------------------------

CHORDS
E-A-D-G-B-e
[F#m7] [2-4-2-2-2-2]  
[G#m7]A6 [4-6-4-4-4-4]5-x-7-6-7-x
B6 7-x-9-8-9-7
 
 Bm7/F# 2-2-4-2-3-2 or 7-9-7-7-7-7 (Bm7)
 C#m7/G# 4-4-6-4-5-4 or 9-11-9-9-9-9 (C#m7)
 ---------------------------------------------------------------------------

INTRO
| E | % | F#m7 | % |
VERSE
[E]Hold on John, John hold on
It's gonna [F#m7]be alright
You gonna [G#m7]win the fight[A6] [B6]
[E]Hold on Yoko, Yoko hold on
It's gonna [F#m7]be alright
You're gonna [G#m7]make the fight[A6] [B6]
CHORUS
When you're [Bm7/F#]by your[C#m7/G#]self
And there's [Bm7/F#]no one [C#m/G#]else
You just [Bm7/F#]have your[C#m/G#]self
And you [Bm7/F#]tell your[C#m7/G#]self
Just to [E]hold on ...
INTERLUDE (verse)
| E | % | F#m7 | % |
(Cookie!)
| G#m7 | A6 B6 |
VERSE
[E]Hold on world, world hold on
It's gonna [F#m7]be alright
You're gonna [G#m7]see the light[A6] [B6]
CHORUS
[Bm7/F#]When you're [C#m7/G#]one
[Bm7/F#]Really [C#m7/G#]one
Well you [Bm7/F#]get things [C#m7/G#]done
Like they've [Bm7/F#]never been [C#m7/G#]done
So [E]hold on

Important: The song above is NOT stored on the Chordie server. The original song is hosted at www.azchords.com. Chordie works as a search engine and provides on-the-fly formatting. Chordie does not index songs against artists'/composers' will. To remove this song please click here.

Text color:
Chord color:
Chord grids: 
Font size:    
Page size: 

A6 B6 E F#m7 G#m7 Bm7/F# C#m/G# C#m7/G#
Rate #1 of 5 versions

Jango Player

Login - add to songbook

SHARE PAGE  




You need to log in to post comments