Guitar Tabs, Chords and Lyrics
Major upgrade!! After one year development the new version of Chordie is now online! Please give feedback.


Jealous Guy  John Lennon

Intro
Q=72
[G] [Em]  
[4/4] Gtr I (Piano arr. for Gtr.)
Q Q Q S S E
 
 |---------------------------|
 |---------------5-----5-7-8-|
 |-7-4---7-4-------4---------|
 |-7---5-7---5-7-7---5-5-7-9-|
 |---------------------------|
 |---------------------------|

S S E S S S S S S E S S E
[D]Q E E S S S S S S S S [D7] E E E S S Q S S S S
 
 |---------------------------|------------5--7---5-----|
 |-7--7----------------------|--7-----7-8--------------|
 |-7--7-------7------9-------|----7-------5----7---5---|
 |------7--------------------|-10---7-7-9--------------|
 |--------7-9---9-10---10-12-|-------------------------|
 |---------------------------|-------------------------|

1st Verse
[Em] [G] [Em] Gt[D]r II (Ac. Gtr.)
H Q Q Q Q Q Q Q E E E E E E
 
 |-------------------------||-------------------------|-2--2-2-2-2-2-2--|
 |-8-5-------5-----7-5-----||-------------5-----5-----|-3--3-3-3-3-3-3--|
 |-------4-----4-------4---||-7-4---7-4-----4-----4---|-2--2-2-2-2-2-2--|
 |-----5---5-7---5-------5-||-7---5-7---5-7---5-7---5-|-0--0-0-0-0-0-0--|
 |-------------------------||-------------------------|-----------------|
 |-------------------------||-------------------------|-----------------|

E E E S S S S E S S S S S S E S S E S S E S S E
[D7]Q E E E E E E [Em]Q E E E E E E [Em6]Q E E E E E E
 
 |-2--2-2-2-2-2-2-|-0--0-0-0-0-0-0-|-0--0-0-0-0-0-0-|
 |-1--1-1-1-1-1-1-|-0--0-0-0-0-0-0-|-2--2-2-2-2-2-2-|
 |-2--2-2-2-2-2-2-|-0--0-0-0-0-0-0-|-0--0-0-0-0-0-0-|
 |-0--0-0-0-0-0-0-|-2--2-2-2-2-2-2-|-2--2-2-2-2-2-2-|
 |----------------|-2--2-2-2-2-2-2-|-2--2-2-2-2-2-2-|
 |----------------|-0--0-0-0-0-0-0-|-0--0-0-0-0-0-0-|

Chorus
[D]Q E E E E E E [Em]Q E E E E E E [C]Q E E E E E E [G]Q E E E E E E
 
 |-2--2-2-2-2-2-2-|-0--0-0-0-0-0-0-|-0--0-0-0-0-0-0-||-3--3-3-3-3-3-3-|
 |-3--3-3-3-3-3-3-|-0--0-0-0-0-0-0-|-1--1-1-1-1-1-1-||-0--0-0-0-0-0-0-|
 |-2--2-2-2-2-2-2-|-0--0-0-0-0-0-0-|-0--0-0-0-0-0-0-||-0--0-0-0-0-0-0-|
 |-0--0-0-0-0-0-0-|-2--2-2-2-2-2-2-|-2--2-2-2-2-2-2-||-0--0-0-0-0-0-0-|
 |----------------|-2--2-2-2-2-2-2-|-3--3-3-3-3-3-3-||-2--2-2-2-2-2-2-|
 |----------------|-0--0-0-0-0-0-0-|----------------||-3--3-3-3-3-3-3-|

[C]Q E E E E E E [G]Q E E E E E E [Bb]Q E E E E E E [G]Q E E E E E E
 
 |-0--0-0-0-0-0-0-|-3--3-3-3-3-3-3-|-1--1-1-1-1-1-1-|-3--3-3-3-3-3-3-|
 |-1--1-1-1-1-1-1-|-0--0-0-0-0-0-0-|-3--3-3-3-3-3-3-|-0--0-0-0-0-0-0-|
 |-0--0-0-0-0-0-0-|-0--0-0-0-0-0-0-|-3--3-3-3-3-3-3-|-0--0-0-0-0-0-0-|
 |-2--2-2-2-2-2-2-|-0--0-0-0-0-0-0-|-3--3-3-3-3-3-3-|-0--0-0-0-0-0-0-|
 |-3--3-3-3-3-3-3-|-2--2-2-2-2-2-2-|-1--1-1-1-1-1-1-|-2--2-2-2-2-2-2-|
 |----------------|-3--3-3-3-3-3-3-|----------------|-3--3-3-3-3-3-3-|

2nd Verse
[Em] [C] [G] [G] [Em] 
Q E E E E E E [4/4] E E E E E E E E [2/4] E E E E [4/4] E E E E E E E E
 
 |-0--0-0-0-0-0-0-|-0-0-0-0-3-3-3-3-|-3-3-3-3-||-3-3-3-3-1-1-1-1-|
 |-0--0-0-0-0-0-0-|-1-1-1-1-0-0-0-0-|-0-0-0-0-||-0-0-0-0-1-1-1-1-|
 |-0--0-0-0-0-0-0-|-0-0-0-0-0-0-0-0-|-0-0-0-0-||-0-0-0-0-2-2-2-2-|
 |-2--2-2-2-2-2-2-|-2-2-2-2-0-0-0-0-|-0-0-0-0-||-0-0-0-0-3-3-3-3-|
 |-2--2-2-2-2-2-2-|-3-3-3-3-2-2-2-2-|-2-2-2-2-||-2-2-2-2-3-3-3-3-|
 |-0--0-0-0-0-0-0-|---------3-3-3-3-|-3-3-3-3-||-3-3-3-3-1-1-1-1-|

[D]Q E E E E E E [D7]Q E E E E E E [Em]Q E E E E E E [Em6]Q E E E E E E
 
 |-2--2-2-2-2-2-2-|-2--2-2-2-2-2-2-|-0--0-0-0-0-0-0-|-0--0-0-0-0-0-0-|
 |-3--3-3-3-3-3-3-|-1--1-1-1-1-1-1-|-0--0-0-0-0-0-0-|-2--2-2-2-2-2-2-|
 |-2--2-2-2-2-2-2-|-2--2-2-2-2-2-2-|-0--0-0-0-0-0-0-|-0--0-0-0-0-0-0-|
 |-0--0-0-0-0-0-0-|-0--0-0-0-0-0-0-|-2--2-2-2-2-2-2-|-2--2-2-2-2-2-2-|
 |----------------|----------------|-2--2-2-2-2-2-2-|-2--2-2-2-2-2-2-|
 |----------------|----------------|-0--0-0-0-0-0-0-|-0--0-0-0-0-0-0-|

Chorus
[D]Q E E E E E E [Em]Q E E E E E E [C]Q E E E E E E [G]Q E E E E E E
 
 |-2--2-2-2-2-2-2-|-0--0-0-0-0-0-0-|-0--0-0-0-0-0-0-||-3--3-3-3-3-3-3-|
 |-3--3-3-3-3-3-3-|-0--0-0-0-0-0-0-|-1--1-1-1-1-1-1-||-0--0-0-0-0-0-0-|
 |-2--2-2-2-2-2-2-|-0--0-0-0-0-0-0-|-0--0-0-0-0-0-0-||-0--0-0-0-0-0-0-|
 |-0--0-0-0-0-0-0-|-2--2-2-2-2-2-2-|-2--2-2-2-2-2-2-||-0--0-0-0-0-0-0-|
 |----------------|-2--2-2-2-2-2-2-|-3--3-3-3-3-3-3-||-2--2-2-2-2-2-2-|
 |----------------|-0--0-0-0-0-0-0-|----------------||-3--3-3-3-3-3-3-|

[C]E E E E [D]E E E E [G]Q E E E E E E [Bb]Q E E E E E E [G]Q E E E E E E
 
 |-0-0-0-0-2-2-2-2-|-3--3-3-3-3-3-3-|-1--1-1-1-1-1-1-|-3--3-3-3-3-3-3-|
 |-1-1-1-1-3-3-3-3-|-0--0-0-0-0-0-0-|-3--3-3-3-3-3-3-|-0--0-0-0-0-0-0-|
 |-0-0-0-0-2-2-2-2-|-0--0-0-0-0-0-0-|-3--3-3-3-3-3-3-|-0--0-0-0-0-0-0-|
 |-2-2-2-2-0-0-0-0-|-0--0-0-0-0-0-0-|-3--3-3-3-3-3-3-|-0--0-0-0-0-0-0-|
 |-3-3-3-3---------|-2--2-2-2-2-2-2-|-1--1-1-1-1-1-1-|-2--2-2-2-2-2-2-|
 |-----------------|-3--3-3-3-3-3-3-|----------------|-3--3-3-3-3-3-3-|

[Em] [C] [G]  
Q E E E E E E [4/4] E E E E E E E E
 
 |-0--0-0-0-0-0-0-|-0-0-0-0-3-3-3-3-|
 |-0--0-0-0-0-0-0-|-1-1-1-1-0-0-0-0-|
 |-0--0-0-0-0-0-0-|-0-0-0-0-0-0-0-0-|
 |-2--2-2-2-2-2-2-|-2-2-2-2-0-0-0-0-|
 |-2--2-2-2-2-2-2-|-3-3-3-3-2-2-2-2-|
 |-0--0-0-0-0-0-0-|---------3-3-3-3-|

|
| Gtr III (Whistling arr. for Gtr.)
| W W
 
 |----------------|-----------------|
 |----------------|-----------------|
 |----------------|-----------------|
 |----------------|-----------------|
 |----------------|-----------------|
 |----------------|-----------------|

Interlude
[G] [Em]  
[2/4] [4/4]  
[E] [E] [E] [E] [E] [E] [E] [E] [E] [E] [E] [E]  
 
 |-3-3-3-3-||-3-3--3--3------0------0--0--0-----|
 |-0-0-0-0-||-0-0--0--0------0------0--0--0-----|
 |-0-0-0-0-||-0-0--0--0------0------0--0--0-----|
 |-0-0-0-0-||-0-0--0--0------2------2--2--2-----|
 |-2-2-2-2-||-2-2--2--2------2------2--2--2-----|
 |-3-3-3-3-||-3-3--3--3------0------0--0--0-----|

|
| W Q E S S +S E. E S S
 
 |---------||--------12-15-(15)-12-------12-----|
 |---------||-----15------------------15----12--|
 |---------||-----------------------------------|
 |---------||-----------------------------------|
 |---------||-----------------------------------|
 |---------||-----------------------------------|

[D] Q E E E E E E [D7]Q E E E E E E
 
 |---2---2-2-2-2-2-2-|-2---2--2------2---2--2----2----|
 |---3---3-3-3-3-3-3-|-1---1--1------1---1--1----1----|
 |---2---2-2-2-2-2-2-|-2---2--2------2---2--2----2----|
 |---0---0-0-0-0-0-0-|-0---0--0------0---0--0----0----|
 |-------------------|--------------------------------|
 |-------------------|--------------------------------|

|
| +H H Q E S S +E E S E S
 
 |-------------------|--------------------------------|
 |-(12)--------------|-------12-15-(15)-12----12------|
 |-------------------|----14---------------14------12-|
 |-------------------|--------------------------------|
 |-------------------|--------------------------------|
 |-------------------|--------------------------------|

[Em] Q E E E E E E [Em6]Q E E E E E E
 
 |---0------0-0-0-0-0-0-|-0---0--0------0---0------0---0----|
 |---0------0-0-0-0-0-0-|-2---2--2------2---2------2---2----|
 |---0------0-0-0-0-0-0-|-0---0--0------0---0------0---0----|
 |---2------2-2-2-2-2-2-|-2---2--2------2---2------2---2----|
 |---2------2-2-2-2-2-2-|-2---2--2------2---2------2---2----|
 |---0------0-0-0-0-0-0-|-0---0--0------0---0------0---0----|

|
| +E E Q H Q E S S +E S S +E S S
 
 |----------------------|-----------------------------------|
 |----------------------|-----------------------------15-15-|
 |-(12)-12-12-----------|------------------14-16-(16)-------|
 |----------------------|----14-16-17-(17)------------------|
 |----------------------|-----------------------------------|
 |----------------------|-----------------------------------|

[D] Q E E E E E E [Em]Q E E E E E E
 
 |---2---2-2-2-2-2-2-|-0---0--0------0---0--0--0-|
 |---3---3-3-3-3-3-3-|-0---0--0------0---0--0--0-|
 |---2---2-2-2-2-2-2-|-0---0--0------0---0--0--0-|
 |---0---0-0-0-0-0-0-|-2---2--2------2---2--2--2-|
 |-------------------|-2---2--2------2---2--2--2-|
 |-------------------|-0---0--0------0---0--0--0-|

|
| +Q Q H Q E S S +E E E E
 
 |-------------------|---------------------------|
 |-(15)--------------|------------------------15-|
 |-------------------|------------------14-16----|
 |-------------------|----14-16-17-(17)----------|
 |-------------------|---------------------------|
 |-------------------|---------------------------|

Chorus
[C] Q E E E E E E [G]Q E E E E E E
 
 |--0--0-0-0-0-0-0-||-3--3-3-3-3-3-3-|
 |--1--1-1-1-1-1-1-||-0--0-0-0-0-0-0-|
 |--0--0-0-0-0-0-0-||-0--0-0-0-0-0-0-|
 |--2--2-2-2-2-2-2-||-0--0-0-0-0-0-0-|
 |--3--3-3-3-3-3-3-||-2--2-2-2-2-2-2-|
 |-----------------||-3--3-3-3-3-3-3-|

|
| H H W
 
 |-----------------||----------------|
 |-15--------------||----------------|
 |-----------------||----------------|
 |-----------------||----------------|
 |-----------------||----------------|
 |-----------------||----------------|

[C]E E E E [D]E E E E [G]Q E E E E E E [Bb]Q E E E E E E [G]Q E E E E E E
 
 |-0-0-0-0-2-2-2-2-|-3--3-3-3-3-3-3-|-1--1-1-1-1-1-1-|-3--3-3-3-3-3-3-|
 |-1-1-1-1-3-3-3-3-|-0--0-0-0-0-0-0-|-3--3-3-3-3-3-3-|-0--0-0-0-0-0-0-|
 |-0-0-0-0-2-2-2-2-|-0--0-0-0-0-0-0-|-3--3-3-3-3-3-3-|-0--0-0-0-0-0-0-|
 |-2-2-2-2-0-0-0-0-|-0--0-0-0-0-0-0-|-3--3-3-3-3-3-3-|-0--0-0-0-0-0-0-|
 |-3-3-3-3---------|-2--2-2-2-2-2-2-|-1--1-1-1-1-1-1-|-2--2-2-2-2-2-2-|
 |-----------------|-3--3-3-3-3-3-3-|----------------|-3--3-3-3-3-3-3-|

3rd Verse
[Em] [C] [G] [G] [Em] 
Q E E E E E E E E E E E E E E [2/4] E E E E [4/4] E E E E E E E E
 
 |-0--0-0-0-0-0-0-|-0-0-0-0-3-3-3-3-|-3-3-3-3-||-3-3-3-3-0-0-0-0-|
 |-0--0-0-0-0-0-0-|-1-1-1-1-0-0-0-0-|-0-0-0-0-||-0-0-0-0-0-0-0-0-|
 |-0--0-0-0-0-0-0-|-0-0-0-0-0-0-0-0-|-0-0-0-0-||-0-0-0-0-0-0-0-0-|
 |-2--2-2-2-2-2-2-|-2-2-2-2-0-0-0-0-|-0-0-0-0-||-0-0-0-0-2-2-2-2-|
 |-2--2-2-2-2-2-2-|-3-3-3-3-2-2-2-2-|-2-2-2-2-||-2-2-2-2-2-2-2-2-|
 |-0--0-0-0-0-0-0-|---------3-3-3-3-|-3-3-3-3-||-3-3-3-3-0-0-0-0-|

[D]Q E E E E E E [D7] Q E E E E E E [Em] Q E E E E E E [Em6]Q E E E E E E
 
 |-2--2-2-2-2-2-2-|--2--2-2-2-2-2-2-|--0--0-0-0-0-0-0-|-0--0-0-0-0-0-0---|
 |-3--3-3-3-3-3-3-|--1--1-1-1-1-1-1-|--0--0-0-0-0-0-0-|-2--2-2-2-2-2-2---|
 |-2--2-2-2-2-2-2-|--2--2-2-2-2-2-2-|--0--0-0-0-0-0-0-|-0--0-0-0-0-0-0---|
 |-0--0-0-0-0-0-0-|--0--0-0-0-0-0-0-|--2--2-2-2-2-2-2-|-2--2-2-2-2-2-2---|
 |----------------|-----------------|--2--2-2-2-2-2-2-|-2--2-2-2-2-2-2---|
 |----------------|-----------------|--0--0-0-0-0-0-0-|-0--0-0-0-0-0-0---|

Out-Chorus
[D]Q E E E E E E [Em]Q E E E E E E [C]Q E E E E E E [G]Q E E E E E E
 
 |-2--2-2-2-2-2-2-|-0--0-0-0-0-0-0-|-0--0-0-0-0-0-0-||-3--3-3-3-3-3-3-|
 |-3--3-3-3-3-3-3-|-0--0-0-0-0-0-0-|-1--1-1-1-1-1-1-||-0--0-0-0-0-0-0-|
 |-2--2-2-2-2-2-2-|-0--0-0-0-0-0-0-|-0--0-0-0-0-0-0-||-0--0-0-0-0-0-0-|
 |-0--0-0-0-0-0-0-|-2--2-2-2-2-2-2-|-2--2-2-2-2-2-2-||-0--0-0-0-0-0-0-|
 |----------------|-2--2-2-2-2-2-2-|-3--3-3-3-3-3-3-||-2--2-2-2-2-2-2-|
 |----------------|-0--0-0-0-0-0-0-|----------------||-3--3-3-3-3-3-3-|

[C]E E E E [D]E E E E [G]Q E E E E E E [Bb]Q E E E E E E [G]Q E E E E E E
 
 |-0-0-0-0-2-2-2-2-|-3--3-3-3-3-3-3-|-1--1-1-1-1-1-1-|-3--3-3-3-3-3-3-|
 |-1-1-1-1-3-3-3-3-|-0--0-0-0-0-0-0-|-3--3-3-3-3-3-3-|-0--0-0-0-0-0-0-|
 |-0-0-0-0-2-2-2-2-|-0--0-0-0-0-0-0-|-3--3-3-3-3-3-3-|-0--0-0-0-0-0-0-|
 |-2-2-2-2-0-0-0-0-|-0--0-0-0-0-0-0-|-3--3-3-3-3-3-3-|-0--0-0-0-0-0-0-|
 |-3-3-3-3---------|-2--2-2-2-2-2-2-|-1--1-1-1-1-1-1-|-2--2-2-2-2-2-2-|
 |-----------------|-3--3-3-3-3-3-3-|----------------|-3--3-3-3-3-3-3-|

[Em]Q E E E E E E [C]E E E E [G]E E E E [C]E E E E [G]E E E E [C]E E E E [G]H +W
 
 |-0--0-0-0-0-0-0-|-0-0-0-0-3-3-3-3-|-0-0-0-0-3-3-3-3-|-0-0-0-0-3----|-(3)----*|
 |-0--0-0-0-0-0-0-|-1-1-1-1-0-0-0-0-|-1-1-1-1-0-0-0-0-|-1-1-1-1-0----|-(0)----*|
 |-0--0-0-0-0-0-0-|-0-0-0-0-0-0-0-0-|-0-0-0-0-0-0-0-0-|-0-0-0-0-0----|-(0)----*|
 |-2--2-2-2-2-2-2-|-2-2-2-2-0-0-0-0-|-2-2-2-2-0-0-0-0-|-2-2-2-2-0----|-(0)----*|
 |-2--2-2-2-2-2-2-|-3-3-3-3-2-2-2-2-|-3-3-3-3-2-2-2-2-|-3-3-3-3-2----|-(2)----*|
 |-0--0-0-0-0-0-0-|---------3-3-3-3-|---------3-3-3-3-|---------3----|-(3)----*| 


Important: The song above is NOT stored on the Chordie server. The original song is hosted at www.azchords.com. Chordie works as a search engine and provides on-the-fly formatting. Chordie does not index songs against artists'/composers' will. To remove this song please click here.

Text color:
Chord color:
Chord grids: 
Font size:    
Page size: 

Bb C D D7 E Em Em6 G
Rate #1 of 11 versions

Jango Player

Login - add to songbook

SHARE PAGE  




You need to log in to post comments