Guitar Tabs, Chords and Lyrics
Major upgrade!! After one year development the new version of Chordie is now online! Please give feedback.


Nobody Told Me  John Lennon

Intro
Q=121(8=s8)
[A] [Aadd9] [D] [D6] [D] [A] 
[4/4] Gtr I (Ac. Gtr.)
W Q E E +Q E E E E E e E e E E
| | | | | | | | | | | |
[/] [/] [/] [/] [/] [/] [/] [/] [/] [/] [/] [/] 
Gtr II (El. Gtr.)
PM PM
W Q E E Q Q Q E E E e E E
 
 |----------|------2---------|-------2---2-----|
 |----------|-2----2--2------|-3-----3---3-----|
 |----------|-2----4--4------|-2-----4---2-----|
 |----------|-2----2--2------|-0---0-0---0-----|
 |----------|-0-------0------|---------------0-|
 |----------|----------------|-----------------|

|
| Gtr III (El. Gtr.)
| W Q q Q q Q q Q q
 
 |----------|----------------|-----------------|
 |----------|----2-------2---|-----3-------3---|
 |----------|----2-------2---|-----2-------2---|
 |----------|----2-------2---|-----0-------0---|
 |----------|----0-------0---|-----------------|
 |----------|----------------|-----------------|

E E E [Aadd9]E +E E E [A]E [D]E E E [D6]E E [D]E E e
| | | | | | | | | | | | | | |
[/] [/] [/] [/] [/] [/] [/] [/] [/] [/] [/] [/] [/] [/] [/]  
Q E E Q Q Q E E E e Q
 
 |-2-----2----------|-----------------|
 |-2-----2--2-------|-3-----3---3-----|
 |-2-----4--4-------|-2-----4---2-----|
 |-2-----2--2-------|-0-----0---0-----|
 |-0--------0-------|-----------------|
 |------------------|-----------------|

|
| Q q Q q Q q Q q
 
 |------------------|-----------------|
 |-----2--------2---|-----3-------3---|
 |-----2--------2---|-----2-------2---|
 |-----2--------2---|-----0-------0---|
 |-----0--------0---|-----------------|
 |------------------|-----------------|

1st & 3rd Verses
[A]Gtr I[A] [D] [D6] [D] [A] [Aadd9] [D] [D6] [D]
Q E E +Q E E Q E E E E E E Q E E +E E E E Q. E E E Q
| | | | | | | | | | | | | | | | | | | | | |
[/] [/] [/] [/] [/] [/] [/] [/] [/] [/] [/] [/] [/] [/] [/] [/] [/] [/] [/] [/] [/] [/] 
Gtr II
PM PM
Q E E Q Q Q E E E e E E Q E E Q Q Q E E E e Q
 
 ||-----------------|------2---------|-2----2----------|----------------|
 ||o-2----2--2------|-3----3---3-----|-2----2--2-------|-3-----3---3----|
 ||--2----4--4------|-2----4---2-----|-2----4--4-------|-2-----4---2----|
 ||--2----2--2------|-0--0-0---0-----|-2----2--2-------|-0-----0---0----|
 ||o-0-------0------|--------------0-|-0-------0-------|----------------|
 ||-----------------|----------------|-----------------|----------------|

|
| Q q Q q Q q Q q Q q Q q Q q Q q
 
 ||-----------------|----------------|-----------------|----------------|
 ||o----2-------2---|----3-------3---|----2--------2---|-----3-------3--|
 ||-----2-------2---|----2-------2---|----2--------2---|-----2-------2--|
 ||-----2-------2---|----0-------0---|----2--------2---|-----0-------0--|
 ||o----0-------0---|----------------|----0--------0---|----------------|
 ||-----------------|----------------|-----------------|----------------|

[A] [E] [D] [Bm]  
Q E E E E Q [2/4] E E E E [4/4] Q q E E Q q E E q q
| | | | | | | | | | | | | | | | | | |
[/] [/] [/] [/] [/] [/] [/] [/] [/] [/] [/] [/] [/] [/] [/] [/] [/] [/] [/] 
Q E E Q E E Q E E q E E q E E E E E E E E E E
 
 |---------0-------|-2-------|-----------------|----------------------||
 |-2----^0-0-----3-|-3-------|-----------------|----------------------||
 |-2----^1-1-----2-|-2-------|-4--4----4---4---|-4---4---4-------4----||
 |-2----^2-2-----0-|-0-------|-4--4----4---4---|-4---4---4-------4----||
 |-0----^2-2-------|-----x---|-2--2----2---2---|-2---2---2-------2----||
 |---------0-------|-------2-|-------2-------2-|-------2-----------2--||

|
| |--3--|
| Q q Q q Q q Q H. Q Q E E E Q
 
 |-----------------|---------|-----------------|----------------------||
 |----2--------0---|-----3---|----3------------|-3---3---3-3---3-3----||
 |----2--------1---|-----2---|----4------------|-4---4---4-------4----||
 |----2--------2---|-----0---|----4------------|-4---4---4-------4----||
 |----0--------2---|---------|----2------------|-2---2---2-------2----||
 |-------------0---|---------|-----------------|----------------------||

2nd & 4th Verses
[A]Q E [Aadd9]E +Q E [A]E [D]Q E [D6]E E [D]E E [A]E Q E [Aadd9]E +E E E [A]E [D]Q. [D6]E E [D]E Q
| | | | | | | | | | | | | | | | | | | | | |
[/] [/] [/] [/] [/] [/] [/] [/] [/] [/] [/] [/] [/] [/] [/] [/] [/] [/] [/] [/] [/] [/] 
PM
Q E E Q Q Q E E E e q Q E E Q Q Q E e E e Q
 
 |----------------|------2---------|------3----------|-------2---------|
 |-2----2--2------|-3----3---3-----|-2----2--2-------|-3-----3---3-----|
 |-2----4--4------|-2----4---2-----|-2----4--4-------|-2-----4---2-----|
 |-2----2--2------|-0----0---0-0---|-2----2--2-------|-0---0-0---0-----|
 |-0-------0------|----------------|-0-------0-------|-----------------|
 |----------------|----------------|-----------------|-----------------|

|
| Q q Q q Q q Q q Q q Q q Q q Q q
 
 |----------------|----------------|-----------------|-----------------|
 |----2-------2---|----3-------3---|----2--------2---|-----3-------3---|
 |----2-------2---|----2-------2---|----2--------2---|-----2-------2---|
 |----2-------2---|----0-------0---|----2--------2---|-----0-------0---|
 |----0-------0---|----------------|----0--------0---|-----------------|
 |----------------|----------------|-----------------|-----------------|

$
A E D Bm N.C.
Q E E E E Q [2/4] E E E E [4/4] W W W
| | | | | | | | |
[/] [/] [/] [/] [/] [/] [/] [/] [/]  
Gtrs I, II
 
 PM-------| PM|

Q Q Q Q Q Q W E e E e E E Q E e E E E E Q
 
 |--------^0------|-^2-------|----------|----------------|----------------|
 |-2------^0------|-^3-------|-3--------|----------------|----------------|
 |-2------^1------|-^2-------|-4--------|----------------|----------------|
 |-2------^2------|-^0-------|-4--------|-------0---2----|---2---0---2----|
 |-0------^2------|-^0-------|-2--------|-2-4---------2--|-2-----------2--|
 |--------^0------|-^2-------|----------|----------------|----------------|

|
 
 | PM-------| PM|

| Q q Q q Q q W E e E e E E Q E e E E E E Q
 
 |----------------|----------|----------|----------------|----------------|
 |----2--------0--|------3---|-3--------|----------------|----------------|
 |----2--------1--|------2---|-4--------|----------------|----------------|
 |----2--------2--|------0---|-4--------|-------0---2----|---2---0---2----|
 |----0--------2--|----------|-2--------|-2-4---------2--|-2-----------2--|
 |-------------0--|----------|----------|----------------|----------------|

Gt
W W
Gt
PM|
|-3--|
E e E e E E Q Q E E +E E E E. S
 
 |----------------|---------------------||
 |----------------|---------------------||
 |----------------|---------------------||
 |-------0---2----|----2-0-(0)-2--------||
 |-2-4---------2--|----------------x----||
 |----------------|-------------------x-||

Chorus
r[G] I[D] [Em]
Q Q Q Q E E E E E E q
| | | | | | | | |
[/] [/] [/] [/] [/] [/] [/] [/] [/] 
rs II, III
 
 |--3--| |--3--| |--3--| |-3-|

Q Q Q Q E E E E E E E E E e E E
 
 |-------------|-7-7---7-7-7---7-7-7---7-7-------|
 |-------7-----|-8-8---8-8-8---8-8-8---8-8-0-0---|
 |-4-----7-----|-9-9---9-9-9---9-9-9---9-9-0-0---|
 |-5-----7-----|-9-9---9-9-9---9-9-9---9-9-------|
 |-5-----5-----|-7-7---7-7-7---7-7-7---7-7-------|
 |-3-----------|---------------------------------|

[G]Q Q [D]Q Q [Em]E E E E E E q [G]Q Q [D]Q Q
| | | | | | | | | | |
[/] [/] [/] [/] [/] [/] [/] [/] [/] [/] [/] 
 
 |--3--| |--3--| |--3--| |-3--|

Q Q Q Q E E E E E E E E E E E E Q Q Q Q
 
 |-3-----------|-7-7---7-7-7---7-7-7---7-7\-----|-3-----------|
 |-3-----7-----|-8-8---8-8-8---8-8-8---8-8\-0---|-3-----7-----|
 |-4-----7-----|-9-9---9-9-9---9-9-9---9-9\-----|-4-----7-----|
 |-5-----7-----|-9-9---9-9-9---9-9-9---9-9\-----|-5-----7-----|
 |-5-----5-----|-7-7---7-7-7---7-7-7---7-7\-----|-5-----5-----|
 |-3-----------|------------------------------0-|-3-----------|

[Em]E E E E E E q [C]Q Q [G]Q Q [D]Q E E H
| | | | | | | | | | | | |
[/] [/] [/] [/] [/] [/] [/] [/] [/] [/] [/] [/] [/] 
 
 |--3--| |--3--| |--3--| |-3-|

E E E E E E E E E E E E Q Q Q Q E E a E E a E e Q
 
 |-7-7---7-7-7---7-7-7---7-7-7---|-0-----3-----|--------------------|
 |-8-8---8-8-8---8-8-8---8-8-8---|-1-----3-----|-3-----3-----3-3----|
 |-9-9---9-9-9---9-9-9---9-9-9---|-0-----4-----|-2---2h4---2h4-2----|
 |-9-9---9-9-9---9-9-9---9-9-9---|-2-----5-----|-0-0-----0-----0----|
 |-7-7---7-7-7---7-7-7---7-7-7---|-3-----5-----|--------------------|
 |-----------------------------0-|-------3-----|--------------------|

Interlude
[C] [G] [A] [Aadd9] [A] [D]|3| |3| [D6]|3| |3|
Q Q Q Q Q Q Q E E E Q E Q E Q E Q
| | | | | | | | | | | | | | |
[/] [/] [/] [/] [/] [/] [/] [/] [/] [/] [/] [/] [/] [/] [/] 
 
 |-3-| |-3-| |-3-| |--3--| |-3-| |-3-| |-3-| |-3-|

Q Q Q Q E E E E E E E E E E E E E E E E E E E E E E E E
 
 |-0-----3-----||---------------------------|-------------2-2---2-----|
 |-1-----3-----||---2---2-2-2-2-2---2-2---2-|-3-3---3-3---3-3---3-3---|
 |-0-----4-----||-2-2---2-2-2-4-4---4-4---4-|-2-2---2-2-2-4-4---4-2-0-|
 |-2-----5-----||-2-2-2-2-2-2-2-2-2-2-2---2-|-0---0-0-0-0-0---0-0-0-0-|
 |-3-----5-----||-0-----------0---0---------|-----------------------0-|
 |-------3-----||---------------------------|-------------------------|

To Coda
[A] [Aadd9] [D] |3| [D6] |3|
Q E E E E Q E E E Q E E E Q
| | | | | | | | | | | |
[/] [/] [/] [/] [/] [/] [/] [/] [/] [/] [/] [/] 
 
 |-3-| |--3--| |--3--| |-3-| |--3--| |-3-| |--3--| |-3-|

[E] [E] [E] [E] [E] [E] [E] [E] [E] [E] [E] [E] [E] [E] [E] [E] [E] [E] [E] [E] [E] [E] [E] [E]  
 
 |-----------------3-----3-----|---2-----2---2-2-2-----2-2------||
 |---2---2-2---2-2-2---2-2-2-0-|---3-----3-3-3-3-3-----3-3-----o||
 |-2-2---2-2---2-4-4---4-4-4-0-|-2-2-----2-2-2-4-4-----4-4-0----||
 |-2-2-2-2-2---2-2-2---2-2-2-0-|-0-----0---0---0-----0-0-0-0----||
 |-0---0---------0-------------|---------------------------0---o||
 |-----------------------------|--------------------------------||

5th Verse
[A]Q E [Aadd9]E +Q E [A]E [D]Q E [D6]E E [D]E E [A]E Q E [Aadd9]E +E E E [A]E
| | | | | | | | | | | | | | | | | | |
[/] [/] [/] [/] [/] [/] [/] [/] [/] [/] [/] [/] [/] [/] [/] [/] [/] [/] [/] 
PM PM
Q E E Q Q Q E E E e E E Q E E Q Q
 
 |----------------|------2---------|-2----2----------|
 |-2----2--2------|-3----3---3-----|-2----2--2-------|
 |-2----4--4------|-2----4---2-----|-2----4--4-------|
 |-2----2--2------|-0--0-0---0-----|-2----2--2-------|
 |-0-------0------|--------------0-|-0-------0-------|
 |----------------|----------------|-----------------|

|
| Gtr III
| Q q Q q Q q Q q Q q Q q
 
 |----------------|----------------|-----------------|
 |----2-------2---|----3-------3---|----2--------2---|
 |----2-------2---|----2-------2---|----2--------2---|
 |----2-------2---|----0-------0---|----2--------2---|
 |----0-------0---|----------------|----0--------0---|
 |----------------|----------------|-----------------|

D.S. al Coda
[D] [D6] [D] [A] [E] [D] 
Q. E E E Q Q E E E E Q [2/4] E E E E
| | | | | | | | | | | |
[/] [/] [/] [/] [/] [/] [/] [/] [/] [/] [/] [/] 
Q E E E e Q Q E E Q E E Q E E
 
 |----------------|---------0-------|-2--------||
 |-3-----3---3----|-2----^0-0-----3-|-3--------||
 |-2-----4---2----|-2----^1-1-----2-|-2--------||
 |-0-----0---0----|-2----^2-2-----0-|-0--------||
 |----------------|-0----^2-2-------|-----x----||
 |----------------|---------0-------|-------2--||

|
| Q q Q q Q q Q q Q q
 
 |----------------|-----------------|----------||
 |-----3-------3--|----2--------0---|-----3----||
 |-----2-------2--|----2--------1---|-----2----||
 |-----0-------0--|----2--------2---|-----0----||
 |----------------|----0--------2---|----------||
 |----------------|-------------0---|----------||

Outro
&
[A] [A] [D] [D6] 
[4/4] |3| |3| |3| |3|
Q Q Q E E E Q E Q E Q E Q
| | | | | | | | | | | | |
[/] [/] [/] [/] [/] [/] [/] [/] [/] [/] [/] [/] [/] 
 
 |-3-| |-3-| |-3-| |--3--| |3| |-3-| |-3-| |-3-|

E E E E E E E E E E E E E Q E E E E E E E E E
 
 ||----2-----------2---2-2-----|---2-2-2---2-2---2-2---|
 ||o-2-2-2-2-2-2-2-2---2-2-----|---3-3-3---3-3---3-3---|
 ||--2---2-2-2-2-4-4---4-4---0-|-2-2-2-2-2-4-4---4-4---|
 ||--2---2-2-2-2-2---4-2-2---0-|-0---0-0-0-0-0-0-0-0---|
 ||o-0---0-------0---0---------|---------------------0-|
 ||----------------------------|-----------------------|

[A] [Aadd9] [D] |3| [D6] |3|
Q E E E E Q E E E Q E E E Q
| | | | | | | | | | | |
[/] [/] [/] [/] [/] [/] [/] [/] [/] [/] [/] [/] 
 
 |-3-| |--3--| |--3--| |-3-| |--3--| |-3-| |--3--| |-3-|

E E E E E E E E E E E E E E E E E E E E E E E E 3x
 
 |---2-----2-------3-----3-3---|---2-----------2-2-----2-2----||
 |-2-2-2-2-2---2-2-2---2-2-2-0-|-3-3-----3-3---3-3-----3-3-3-o||
 |-2-2-2-2-2---2-4-4---4-4-4-0-|-2-2-----2-2---4-4---4-4-4-2--||
 |-2-2-2-2-----2-2-2---2-2-2---|-0-----0-0-0-0-0-----0-0---0--||
 |-0---0---------0-----0-------|-----------------------------o||
 |-----------------------------|------------------------------|| 


Important: The song above is NOT stored on the Chordie server. The original song is hosted at www.azchords.com. Chordie works as a search engine and provides on-the-fly formatting. Chordie does not index songs against artists'/composers' will. To remove this song please click here.

Text color:
Chord color:
Chord grids: 
Font size:    
Page size: 

A Aadd9 Bm C D D6 E Em G
Rate #1 of 4 versions

Login - add to songbook

SHARE PAGE  




You need to log in to post comments