Guitar Tabs, Chords and Lyrics
Major upgrade!! After one year development the new version of Chordie is now online! Please give feedback.


I Love the Way You Love Me  John Michael Montgomery

I Love The Way You Love Me
G 320003
Am x02210
D xx0232
Gsus4/D xx001x
D7 xx0212
Em 022000
D7sus2 xx0210
C x32010
Am7 x02013
D7sus4 xx0013
Dadd4 xx0032
G6add9/B x25230
C/D x5555x
DV x5777x
Gtr I Acoustic 1st 6
Gtr II Acoustic 2nd 6
Gtr III Acoustic Rhythm
All Guitars Standard Tuning
Intro
Moderately Q=95
N.C.
[4/4] Gtrs I, II
E E E E +E a Q. +E E E E +E a Q. E E E E +E a Q.
 
 |--------5--(5)-5s7------|-(7)------5--(5)-5s7------|-----5--7--(7)-7s8------|
 |-----8------------------|-------8------------------|---5--------------------|
 |---7-------------4------|-----7-------------4------|-----------------5------|
 |-5---5-(5)--5-------5---|--5----5-(5)--5-------5---|-----7-(7)--7-------7---|
 |---5------------------5-|-----5------------------5-|---7------------------7-|
 |------------------------|--------------------------|-5----------------------|

[E] [E] [E] [+E] [E] [E] [E] [E] [E] [E] [E] [+E] [E] [E] [E] [E] [E] [E] [E] [+E] [E] [E] [E] [E] 
Verse
[G]  
[B] [B] [E] [E] [E] [E] [+E] [E] [E] [E] [E] [E] [E] [E] [+E] [E] [E] [E]  
 
 |-7-------5-------||--------------------|-------------------|
 |-7---7---5---5---||o-------------0-----|-------------0-----|
 |-7-----7-5-----5-||------0-2-(2)---0---|-----0-2-(2)---0---|
 |---7-------7-----||----0-------------0-|---0-------------0-|
 |-5-------5-------||o-------------------|-------------------|
 |-----------------||--3-----------------|-3-----------------|

[E] [E] [E] [E] [E] [E] [E] [E]  
[Em] [C] 
[E] [E] [E] [E] [+E] [E] [E] [E] [E] [E] [E] [E] [+E] [E] [E] [E] [E] [E] [E] [E] [+E] [E] [E] [E]  
 
 |-------------------|-------------------|-------------------|
 |-------0-(0)---0---|-------0-(0)---0---|-------1-(1)---1---|
 |-----0-----------0-|-----0-----------0-|-----0-----------0-|
 |---2---------2-----|---2---------2-----|---2---------------|
 |-------------------|-------------------|-3-----------3-----|
 |-0-----------------|-0-----------------|-------------------|

E E E E +E E E E [Gsus4/DD7]E E Q E E E E E E E E [D]E E E E
 
 |-------------------|----------------|-----------------|
 |-------1-(1)---1---|-----1------1---|-----1-------3---|
 |-----0-----------0-|---0------2---2-|---2---2---2---2-|
 |---2---------------|-0------0-------|-0-------0-------|
 |-3-----------3-----|----------------|-----------------|
 |-------------------|----------------|-----------------|

[G]  
[E] [E] [E] [E] [+E] [E] [E] [E] [E] [E] [E] [E] [+E] [E] [E] [E]  
 
 |-------------------|-------------------|
 |-------------0-----|-------------0-----|
 |-----0-2-(2)---0---|-----0-2-(2)---0---|
 |---0-------------0-|---0-------------0-|
 |-------------------|-------------------|
 |-3-----------------|-3-----------------|

|
| Gtr III
| W H E E E E
 
 |-------------------|-------------5-----|
 |-------------------|---------------8---|
 |-------------------|-----------------7-|
 |-------------------|-------------------|
 |-------------------|-------------------|
 |-------------------|-------------------|

[Em]  
[E] [E] [E] [E] [+E] [E] [E] [E] [E] [E] [E] [E] [+E] [E] [E] [E]  
 
 |-------------------|---------------------|
 |-------0-(0)---0---|---------0-(0)---0---|
 |-----0-----------0-|-------0-----------0-|
 |---2---------2-----|-----2---------2-----|
 |-------------------|---------------------|
 |-0-----------------|--0------------------|

|
| W +H +E E E E
 
 |-5-----------------|-(5)-------(5)-5-----|
 |-------------------|-----------------8---|
 |-------------------|-------------------7-|
 |-------------------|---------------------|
 |-------------------|---------------------|
 |-------------------|---------------------|

[C]E E E E +E E E E E E E E +E E E E [Gsus4/DD7]E E Q E E E E E E E E [D] E E E E
 
 |-------------------|---------------------|----------------|------------------||
 |-------1-(1)---1---|---------1-(1)---1---|-----1------1---|-----1--------3---||
 |-----0-----------0-|-------0-----------0-|---0------2---2-|---2---2----2---2-||
 |---2---------------|-----2---------------|-0------0-------|-0--------0-------||
 |-3-----------3-----|--3------------3-----|----------------|------------------||
 |-------------------|---------------------|----------------|------------------||

|
| W +W H H H H
 
 |-5-----------------|-(5)-----------------|----------------|------------------||
 |-------------------|---------------------|-5------7-------|-8-------10-------||
 |-------------------|---------------------|-5------7-------|-9-------11-------||
 |-------------------|---------------------|----------------|------------------||
 |-------------------|---------------------|----------------|------------------||
 |-------------------|---------------------|----------------|------------------||

Chorus
$
[C]Gtr III[D]
[E]| [E]| [E]| [E]| [E]| [E]| [E]| [E]| [E]| [E]| [E]| [E]| [E]| [E]| [E]| [E]|
[/] [/] [/] [/] [/] [/] [/] [/] [/] [/] [/] [/] [/] [/] [/] [/]  
[E] [E] [E] [E] [E] [E] [E] [E] [E] [E] [E] [E] [E] [E] [E] [E]  
 
 |-----------------|-----------2-----|
 |-----------3-----|-----3-------3---|
 |-----0-------0---|---2---2-------2-|
 |---2---2-------2-|-0-------0-------|
 |-3-------3-------|-----------------|
 |-----------------|-----------------|

[G]  
[E]| [E]| [E]| [E]| [E]| [E]| [E]| [E]| [E]| [E]| [E]| [E]| [E]| [E]| [E]| [E]|
[/] [/] [/] [/] [/] [/] [/] [/] [/] [/] [/] [/] [/] [/] [/] [/] 
E E E E +E a Q. +E E E E +E a Q.
 
 |-------5-(5)-5h7------|-(7)-----5-(5)-5h7--------|
 |-----8----------------|-------8------------------|
 |---7------------------|-----7--------------------|
 |----------------------|--------------------------|
 |----------------------|--------------------------|
 |----------------------|--------------------------|

[C] [D] [G] [C] 
[E]| [E]| [E]| [E]| [E]| [E]| [E]| [E]| [E]| [E]| [E]| [E]| [E]| [E]| [E]| [E]| [E]| [E]| [E]| [E]| [E]| [E]| [E]| [E]| [E]| [E]| [E]| [E]| [E]| [E]| [E]| [E]|
[/] [/] [/] [/] [/] [/] [/] [/] [/] [/] [/] [/] [/] [/] [/] [/] [/] [/] [/] [/] [/] [/] [/] [/] [/] [/] [/] [/] [/] [/] [/] [/] 
E E E E E E E E E E E E E E E E W Q E E +E E E E
 
 |-----------------|---------------2-|-3---------------|-3---2-0-(0)-------|
 |-----------3-----|-----3-------3---|-3---------------|-------------3-0-3-|
 |-----0-------0---|---2---2---2-----|-4---------------|-------------------|
 |---2---2-------2-|-0-------0-------|-5---------------|-------------------|
 |-3-------3-------|-----------------|-----------------|-------------------|
 |-----------------|-----------------|-----------------|-------------------|

[Am7] [D7sus4]  
[E]| [E]| [E]| [E]| [E]| [E]| [E]| [E]| [E]| [E]| [E]| [E]| [E]| [E]| [E]| [E]|
[/] [/] [/] [/] [/] [/] [/] [/] [/] [/] [/] [/] [/] [/] [/] [/]  
W W
 
 |-3---------------|-3---------------|
 |-1---------------|-1---------------|
 |-0---------------|-0---------------|
 |-2---------------|-0---------------|
 |-0---------------|-----------------|
 |-----------------|-----------------|

1.
To Coda
[G]  
[E]| [E]| [E]| [E]| [E]| [E]| [E]| [E]| [E]| [E]| [E]| [E]| [E]| [E]| [E]| [E]|
[/] [/] [/] [/] [/] [/] [/] [/] [/] [/] [/] [/] [/] [/] [/] [/] 
E E E E +E a Q. +E E E E +E a Q.
 
 |--------5--(5)-5s7------|-(7)------5--(5)-5s7--------|
 |-----8-----------0------|-------8--------------------|
 |---7----------------0---|-----7-------------4--------|
 |-5---5-(5)--5---------0-|--5----5-(5)--5-------5-----|
 |---5--------------------|-----5------------------5---|
 |------------------------|----------------------------|

[E] [E] [E] [+E] [E] [E] [E] [E] [E] [E] [E] [+E] [E] [E] [E] [E] 
2.
[Am] [Da]  

Important: The song above is NOT stored on the Chordie server. The original song is hosted at www.azchords.com. Chordie works as a search engine and provides on-the-fly formatting. Chordie does not index songs against artists'/composers' will. To remove this song please click here.

Text color:
Chord color:
Chord grids: 
Font size:    
Page size: 

Am Am7 B C D D7sus4 Da E Em G
Rate #1 of 10 versions

Login - add to songbook

SHARE PAGE  




You need to log in to post comments