Guitar Tabs, Chords and Lyrics
Songbooks are teporarily down. Dont panic. Working on recovering it. Dont save new songs in songbooks!


Cocaine Blues  Johnny Cash

(Live)
Cocaine Blues Live At Folsom Prison
Johnny Cash
(The notes for the Joaquin Phoenix on the
Walk The Line Soundtrack version are almost identical)
p=pulloff
h=hammeron
\=slide down
/=slide up
m=palm mute
Capo on 1st fret
intro (Electric):
 
 |----------------------------------------|
 |----------------------------------------|
 |----------------------------------------|
 |---------5m--5m--5m--5m--5m--5m--5m--5m-|
 |---0-2-3-------3-------3-------3--------|
 |-3---------3-------3-------3-------3----|

This is what the electric does curing the singing:
 
 |-----------------------------------------------|
 |-----------------------------------------------|
 |-----------------------------------------------|
 |---5m--5m--5m--5m--5m--5m--5m--5m--5m--5m--5m--|
 |-3-------3-------3-------3-------3-------3-----|
 |-----3-------3-------3-------3-------3-------3-|
 |--------------------------------------------------|
 |--------------------------------------------------|
 |--------------------------------------------------|
 |---5m--5m--5m--5m--5m--5m--5m--5m--5m--5m---------|
 |-----5-------5-------5-------5-------5------0-2-3-|
 |-3-------3-------3-------3-------3-------3--------|

Chords:
[C]Early one mornin' while makin' the rounds
[C]I took a shot of cocaine and I [G]shot my woman down
[G]I went right home and I went to bed
I [C]stuck that lovin' 44 beneath my head
[C]Got up next mornin' and I grabbed that gun
[C]Took a shot of cocaine and a[G]way I run
[G]Made a good run but I ran too slow
They [C]overtook me down in Juarez Mexico
[C]Late in the hot joints takin' the pills
[C]In walked the sheriff from [G]Jericho Hill
[G]He said Willy Lee your name is not Jack Brown
[C]You're the dirty heck that shot your woman down
[C]Said yes, oh yes my name is Willy Lee
[C]If you've got the warrant just a-read it to me
[G] Shot her down because she made me sore
I [C]thought I was her daddy but she had five more
[C]When I was arrested I was dressed in black
[C]They put me on a train and they [G]took me back
[G]Had no friend for to go my bail
They [C]slapped my dried up carcass in that county jail
[C]Early next mornin' bout a half past nine
[C]I spied the sheriff coming [G]down the line
[G]Ah, and he coughed as he cleared his throat
He said come [C]on you dirty heck into that district court
[C]Into the courtroom my trial began
[C]Where I was handled by [G]twelve honest men
[G]Just before the jury started out
I [C]saw the little judge commence to look about
[C]In about five minutes in walked the man
[C]Holding the verdict in [G]his right hand
[G]The verdict read murder in the first degree
I [C]hollered Lordy Lordy, have a mercy on me
[C]The judge he smiled as he picked up his pen
[C]99 years in the [G]Folsom pen
[G]99 years underneath that ground
I [C]can't forget the day I shot that bad b**ch down
Outro:
Electric during the singing:
 
 |------------------------------------------------0-|
 |------------------------------------------------1-|
 |------------------------------------------------0-|
 |--------0-2-3---3--2-1-0---0--------------------2-|
 |-3---3--------3----------0---0----5---5--3---3--3-|
 |---3----------------------------3---3------3------|

Outro Chords:
[C]Come on you've gotta listen [F]on to me
[D]Lay off that whiskey and [G]let that cocaine [C]be.

Important: The song above is NOT stored on the Chordie server. The original song is hosted at www.azchords.com. Chordie works as a search engine and provides on-the-fly formatting. Chordie does not index songs against artists'/composers' will. To remove this song please click here.

Text color:
Chord color:
Chord grids: 
Font size:    
Page size: 

C D F G
Rate #1 of 8 versions

Jango Player

Login - add to songbook

SHARE PAGE  



You need to log in to post comments