Guitar Tabs, Chords and Lyrics
Login is temporarily disabled for some users. Do not panic. Will be back in an hour or two. DO NOT REREGISTER!!


Don't Take Your Guns to Town  Johnny Cash

[1] [+] [2] [+] [3] [+] [4] [+] [1] [+] [2] [+] [3] [+] [4] [+]  
 
 e|-----------0----------0-------0----------0--|----0--------0-----0-----0-|
 B|-----------2----------2-------2----------2--|----0--------0-----2-----2-|
 G|-----------2----------2-------2----------2--|----1--------1-----2-----2-|
 D|-----------2----------2-------2----------2--|----2--------2-----2-----2-|
 A|---0-------0----------0---0---0----------0--|----2--2-----2-0---0-----0-|
 E|-----------x---0------x-------x---0------x--|-0--0--------0-----x--0--x-|

1)He laughed and kissed his mom and said, "Your Billy Joe's a man
2) I can shoot as quick and straight as a- ny-bo- dy can
Line 3
[D] [D] 
[1] [+] [2] [+] [3] [+] [4] [+] [1] [+] [2] [+] [3] [+] [4] [+]  
 
 e|----2----------2-------2--------2--|----2---2------2-----2---|
 B|----3----------3-------3--------3--|----3---3------3-----3---|
 G|----2----------2-------2--------2--|----2---2------2-----2---|
 D|0---0----------0---0---0--------0--|0---0---0--0---0-----0---|
 A|----x----0-----x-------x-0------x--|----x-0-x------x--0--x---|
 E|----x----------x-------x--------x--|----x---x------x-----x---|

I wouldn't shoot without a cause, I'd gun nobody down."
Line 4
[A] 
1 + 2 + 3 + 4...
 
 e|--------0---------0-------0----------|
 B|--------2---------2-------2----------|
 G|--------2---------2-------2----------|
 D|--------2---------2-------2----------|
 A|--0-----0---------0--0----0----------|
 E|--------x-0-------x-------x-0--------|

She cried a-gain as he rode a-way...
CHORUS
Line 1 and 2 are the same chords:
[D] [A] 
 
 e|----------------2-------------0------|
 B|----------------3-------------3------|
 G|----------------2-------------3------|
 D|-----0----------0-------------3------|
 A|----------------x-------0-----0------|
 E|----------------x-------------x------|

Don't take your guns to town, son
Leave your guns at home, Bill...
Line 3:
[NC] [D] [A] 
[1] [+] [2] [+] [3] [+] [4] [+] [1] [+] [2] [+] [3] [+] [4] [+]  
 
 e|------------------2-------|----0---0---0---0--|--0---0---0---0--|
 B|------------------3-------|----2---2---2---2--|--2---2---2---2--|
 G|------------------2-------|----2---2---2---2--|--2---2---2---2--|
 D|--------0---------0-------|----2---2---2---2--|--2---2---2---2--|
 A|------------------x-------|0---0---0-0-0---0--|0-0---0-0-0---0--|
 E|------------------x-------|----x-0-x---x-0-x--|--x-0-x---x-0-x--|

Don't take your guns to town.

Important: The song above is NOT stored on the Chordie server. The original song is hosted at www.azchords.com. Chordie works as a search engine and provides on-the-fly formatting. Chordie does not index songs against artists'/composers' will. To remove this song please click here.

Text color:
Chord color:
Chord grids: 
Font size:    
Page size: 

A D
Rate #1 of 4 versions

Login - add to songbook

SHARE PAGE  




You need to log in to post comments