Guitar Tabs, Chords and Lyrics
Update 25:10. 13:00. Site is back up running again. Songbooks are recovered. Woring on getting search back up..


Hurt  Johnny Cash

Into/Verse
[A] [C] [D] [A]  
 
 ---------0--------------0-------------2--------------0-------|
 ---------1--------------1-------------3--------------1-------|
 ---------2--------------0----------2-----------------2-------|
 -----2--------------2----------0-----------------2-----------|
 ??0--------------3----------------------------0---------------|
 -------------------------------------------------------------|

Chorus
[A] [F] [C] [G]  
 
 ---------1------------3---------|
 ---1-----1-----1------3---------|
 ---2-----2-----0------0---------|
 ---2-----3-----2------0---------|
 ??--0-----3-----3------2---------|
 ----------------------3---------|

that sounds the most accurate

Important: The song above is NOT stored on the Chordie server. The original song is hosted at www.azchords.com. Chordie works as a search engine and provides on-the-fly formatting. Chordie does not index songs against artists'/composers' will. To remove this song please click here.

Text color:
Chord color:
Chord grids: 
Font size:    
Page size: 

A C D F G
Rate #16 of 20 versions

Jango Player

Login - add to songbook

SHARE PAGE  




You need to log in to post comments