Guitar Tabs, Chords and Lyrics
Major upgrade!! After one year development the new version of Chordie is now online! Please give feedback.


I Witnessed a Crime  Johnny Cash

w- billy gibbons
Intro
(sniff cough cough) one two three ...
 
 ----------------------------------------------------|
 ------------x-x--x-x--x-x--x-x--x-x--x-x------------|
 -(2)--------2-2--2-2--2-2--2-2--2-2--2-2---2--------|
 --2---------2-2--2-2--2-2--2-2--2-2--2-2---2--------|
 ----------0~~-------0~~-------0~~-------0--0--------|
 ----0-2-4------0~~--------0~~-------0~~------0-2-4--|

[A]I witnessed a crime,[D] I should be tellin you it was mine.
Cause there was nothin worse, she got the [A]best of me first.
And now Im alone and [E]I, witnessed a[A] crime.
If someone [A]ups and walks away is that a sin?
I have no [D]doubt she'll loo another man in.
I'd walk a mile to tell and testi[A]fie I fell
I'm servin time in hell Oh [E]I, witnessed a [A]crime
I wanna [D]say it came as a surpriiise,
When she all[A]owed the looks of other mens' eyes
and now Im alooone and [E]I, witnessed a [A]crime
Solo
 
 ---------------5-5-------5-5-------5-5-------5-5----|
 -------------5-----5---5-----5---5-----5---5-----5--|
 -----------6---------6---------6---------6----------|
 ----------------------------------------------------|
 ----------------------------------------------------|
 ----0-2-4-------------------------------------------|
 ------10-10-------10-10------10-10------10-10--|
 ----10-----10---10-----10--10-----10--10-------|
 --11----------11---------11---------11---------|
 -----------------------------------------------|
 -----------------------------------------------|
 -----------------------------------------------|
 ---------------------------------------------------|
 ---------------------------------------------------|
 --2~~---0-2-0-2-0-2-0-2-0-2-0-2-2-4-2-4-2-4-2-4-2--|
 --2~~---2-2-2-2-2-2-2-2-2-2-2-2-2-2-2-2-2-2-2-2-2--|
 ---------------------------------------------------|
 ---------------------------------------------------|
 ---------------------------------------------------|
 -------------------------------------------------...
 --------------------------------------x-x---x-x--...
 2-2-2-4-4-4-4-5-5-4-4-2-2-------------2-2---2-2--...
 --------------------------4-2---------2-2---2-2--...
 ------------------------------3/4---0------------...
 ------------------------------------------0------...

It's [A]left me walkin 'cross this empty floor,
I just dont [D]knoow if I can take it anymore.
My thoughts wont let me be, my heart's a[A]bandoned me
And the memories won't deny that [E]I witnessed a [A]crime
And the memories won't deny that [E]I witnessed a [A]crime.

Important: The song above is NOT stored on the Chordie server. The original song is hosted at www.azchords.com. Chordie works as a search engine and provides on-the-fly formatting. Chordie does not index songs against artists'/composers' will. To remove this song please click here.

Text color:
Chord color:
Chord grids: 
Font size:    
Page size: 

A D E
Rate #1 of 1 versions

Login - add to songbook

SHARE PAGE  




You need to log in to post comments