Guitar Tabs, Chords and Lyrics
Login is temporarily disabled for some users. Do not panic. Will be back in an hour or two. DO NOT REREGISTER!!


Love's Been Good to Me  Johnny Cash

Intro A ‚?? Asus4
 
 <-----------Riff------------>

^ v ^ v ^ ^ v ^ v ^
Q. E E E E E Q. E E E E E
 
 E||--0------0--0--0--0---(0)--|--0------0--0--0--0---(0)--|
 B||--2------2--2--2--2h---3---|--2------2--2--2--2h---3---|
 G||--2------2--2--2--2---(2)--|--2------2--2--2--2---(2)--|
 D||--2------2--2--2--2---(2)--|--2------2--2--2--2---(2)--|
 A||--0---------------0---(0)--|--0---------------0---(0)--|
 E||---------------------------|---------------------------|

^ v ^ v ^ ^ v ^ v ^
Q. E E E E E Q. E E E E E
 
 --0------0--0--0--0---(0)--|--0------0--0--0--0---(0)--||
 --2------2--2--2--2h---3---|--2------2--2--2--2h---3---||
 --2------2--2--2--2---(2)--|--2------2--2--2--2---(2)--||
 --2------2--2--2--2---(2)--|--2------2--2--2--2---(2)--||
 --0---------------0---(0)--|--0---------------0---(0)--||
 ---------------------------|---------------------------||

CHORUS
Bm E A Riff
I have been a rover, I have walked alone
Bm E A G#(bass) ‚?? Fm#
Hiked a hundred highways, Never found a home
Still in all I'm h[C#m]appy, [D]The reason is, you s[Dm]ee
[A]Once in a wh[Bm]ile alo[D]ng the [Dm]way, L[A]ove's been g[E]ood to [A]me
Bm E Bm E A (G#)‚?? Fm#
There was a girl in Denver, Before the summer storm
Oh, her eyes were t[C#m]ender,[D] Oh, her arms were w[E]arm
And she could sm[A]ile a[C#7]way the t[F#m]hunder[A7], [D] Kiss away the ra[Dm]in
[A]Even thoug[Bm]h she's go[D]ne a[Dm]way, You wo[A]n't hear m[E]e compl[A]ain
PLAY CHORUS
Bm E Bm E A (G#)‚?? Fm#
There was a girl in Portland, Before the winter chill
We used to go a-[C#m]courtin',[D] Along October [E]hill
And she could la[A]ugh a[C#7]way the d[F#m]ark c[A7]louds,[D] Cry away the snow[Dm]
[A]It seems like [Bm]only [D]yester[Dm]day, As d[A]own the r[E]oad I [A]go
PLAY CHORUS (SLOW DOWN ON LAST VERSE)

Important: The song above is NOT stored on the Chordie server. The original song is hosted at www.azchords.com. Chordie works as a search engine and provides on-the-fly formatting. Chordie does not index songs against artists'/composers' will. To remove this song please click here.

Text color:
Chord color:
Chord grids: 
Font size:    
Page size: 

A A7 Bm C#7 C#m D Dm E F#m
Rate #1 of 5 versions

Login - add to songbook

SHARE PAGE  



You need to log in to post comments