Guitar Tabs, Chords and Lyrics
Songbooks are teporarily down. Dont panic. Working on recovering it. Dont save new songs in songbooks!


Orange Blossom Special  Johnny Cash

ORANGE BLOSSOM SPECIAL: SOLO
JOHNNY CASH (THE GREATEST EVER!!!!!!!!)
The verses for this song have the chords C,F,G7.
Going into the Interlude(Solo), C7 is played leading into it. The key is then changed to the key of F.
[F] [Bb]  
 
 E-----------------|----------------|------1-----1----|
 B------1-----1----|--1-----1-----1-|----3-----3-----3|
 G----2-----2-----2|------2-----2---|--3-----3-----3--|
 D--3-----3-----3--|----3-----3----3|-----------------|

[C7]  
 
 E--1-----1-----1--|----0-3---0-3---3|--3---0-3---0-3--|
 B------3-----3----|--1-----1-----1--|----1-----1-----1|
 G----3-----3-----3|-----------------|-----------------|
 D-----------------|-----------------|-----------------|

[F] [F]  
 
 E--1-5-8-1-5-8-1-5|--8-1-5-8-8--||-----------------|
 B-----------------|------------1||----------3-1----|
 G-----------------|-------------||----0-2-------2-0|
 D-----------------|-------------||--3-----3--------|

REPEAT ||
[C7]  
 
 E-----------------|-----------------|-----|------0-1-3-1-0-|
 B----------3-1----|----------3-1----|--0--|--1-3----------3|
 G----0-2-------2-0|----0-2-------2--|----0|----------------|
 D--3-----3--------|--3-----3-------3|-----|----------------|
 E------0-1-3-1----|------0-1-3-1-0--|-----------------|
 B--1-3---------0-3|--1-3-----------3|--1-3-1-0--------|
 G-----------------|-----------------|----------2---0--|
 D-----------------|-----------------|------------3---2|

[F]  
 
 E-----------------|-----------------|-----------------|
 B----------3-1----|----------3-1----|----------3-1----|
 G----0-2-------2--|----0-2-------2-0|----2-0-------2--|
 D--3-----3-------3|--3-----3--------|--3-----3-------3|

[Bb] [F] [Gm7] [C7]  
 
 E-------|------0-1-3-1-0--|-----------------|--------------|
 B--1-3--|----3-----------3|--1---1---3-1----|--------------|
 G------3|--3--------------|----2---2-----2--|--0---2---3---|
 D-------|-----------------|----------------3|----3---3---0-|

Key changes back to C.
G--[G7]0|

Important: The song above is NOT stored on the Chordie server. The original song is hosted at www.azchords.com. Chordie works as a search engine and provides on-the-fly formatting. Chordie does not index songs against artists'/composers' will. To remove this song please click here.

Text color:
Chord color:
Chord grids: 
Font size:    
Page size: 

Bb C7 F G7 Gm7
Rate #1 of 3 versions

Login - add to songbook

SHARE PAGE  




You need to log in to post comments