Guitar Tabs, Chords and Lyrics
Major upgrade!! After one year development the new version of Chordie is now online! Please give feedback.


Where the Soul of Man Never Dies  Johnny Cash

h -> hammer-on
 
 e--------------------------------------------------------------------------|
 B--------------------------------------------------------------------------|
 G--------------------------------------------------------------------------|
 D--------------------------2----4----2-----4--2----------------------------|
 A--2h4-4----2---0----2h4-------------------------4---2h4----4-----4--2--2--|
 E--------------------------------------------------------------------------|
 e--------------------------------------------------------------------------|
 B--------------------------------------------------------------------------|
 G--------------------------------------------------------------------------|
 D--------------------------2----4----2-----4--2----------------------------|
 A--2h4-4----2---0----2h4-------------------------4---2h4----4-----4--2--0--|
 E--------------------------------------------------------------------------|

To [A]Canaan's land I'm on my way
Where the soul of man never [E]dies
My [A]darkest night will turn to day
Where the soul of [E]man never [A]dies
Chorus:
Dear [A]friends there'll be no sad farewells
There'll be no tear-dimmed [E]eyes
Where [A]all is peace and joy and love
And the soul of [E]man never [A]dies
A [A]rose is blooming there for me
Where the soul of man never [E]dies
And [A]I will spend eternity
Where the [E]soul of man never [A]dies
Chorus
I'm [A]on my way to that fair land
Where the soul of man never [E]dies
Where [A]there will be no parting hand
And the soul of [E]man never [A]dies
Chorus

Important: The song above is NOT stored on the Chordie server. The original song is hosted at www.azchords.com. Chordie works as a search engine and provides on-the-fly formatting. Chordie does not index songs against artists'/composers' will. To remove this song please click here.

Text color:
Chord color:
Chord grids: 
Font size:    
Page size: 

A E
Rate #1 of 2 versions

Login - add to songbook

SHARE PAGE  




You need to log in to post comments