Guitar Tabs, Chords and Lyrics
Major upgrade!! After one year development the new version of Chordie is now online! Please give feedback.


Re Your Brains  Jonathan Coulton

This is the tab for one of my very favourite songs, RE: your brains by JoCo. Its more or
less %100 right but feel free to change it as you will.
Enjoy :)
This is what is played as the F chord in the chorus
 
 ----------------|
 ----------------|
 2-2-2-2-2-2-2-0-|
 3-3-3-3-3-3-3-0-|
 3-3-3-3-3-3-3-x-|
 1-0-1-0-1-0-1-3-|

Chords
Verse and chorus
Am x02210
[F]C [133211]x32010
G/B x2003x
G 3x0003
Fdim7 xx3434
Am7/G 3x2010 also notated as C/G
D7/F# 2x0212
E7 020100
[Fm]Csu[133111]s4 x33010
F/E 0332xx
Dm xx0231
Bridge
[Ab]Eb [466544]x6888x
Gdim7 xx5656
C# x4666x
C#m x46654
Verse 1
[Am] Heya Tom, it's [F]Bob.. from the [C]office down the [C]hall[G/B]
[Am] Good to see you [F]buddy, how've you [G]been?[C/G] [G]
[Fdim7] Things have been OK for me ex[Am]cept that I'm a [Am7/G]zombie now[D7/F#]
I really wish you'd let us [G]in
I [F]think I speak for [C]all of us when I [E7]say I under[Am]stand
Wh[F]y you folks might [C]hesitate to submi[E7]t to our de[Am]mand
But [F]here's an FYI: [Fm]you're all gonna die.. screaming
Chorus
[C]All we [G]want to do is [F]eat your brains[G]
C G F(chorus Figure)
We're not unreasonable, I mean, no-one's gonna eat your eyes
[C]All we [G]want to do is [F]eat your brains[G]
Am Em F(chorus figure)
We're at an impasse here, maybe we should compromise:
If you [F]open [F/E]up the [Dm]doors
[F]We'll all [F/E]come in[F]side and [G]eat your [C]brains
Verse 2
[Am] I don't want to [F]nitpick, Tom, but is [C]this really your plan?[G/B]
[Am] To spend your whole life [F]locked inside a [G]mall?[C/G] [G]
[Fdim7] Maybe that's OK for now but [Am]someday you'll be [Am7/G]out of food and [D7/F#]guns
And then you'll have to make the [G]call
I'm [F]not surprised to [C]see you haven't [E7]thought it through [Am]enough
You [F]never had the [C]head for all that [E7]bigger picture [Am]stuff
But [F]Tom, that's what I do, and I [Fm]plan on eating you.. slowly
Chorus 2
[C]All we [G]want to do is [F]eat your brains[G]
C G F(chorus Figure)
We're not unreasonable, I mean, no-one's gonna eat your eyes
[C]All we [G]want to do is [F]eat your brains[G]
Am Em F(chorus figure)
We're at an impasse here, maybe we should compromise:
If you [F]open [F/E]up the [Dm]doors
[F]We'll all [F/E]come in[F]side and [G]eat your [Ab]brains
Bridge
I'd like to [Eb]help you Tom, in [Gdim7]any way I [C#]can
I sure ap[C#m]preciate the way you're working [Ab]with me
I'm not a [Eb]monster Tom, well[Gdim7], technically I [Fm]am
I guess I [C]am
Solo - Same chords as chorus except end on Am
 
 e|--------------------------------------------------------------------------|
 B|--------------------------------------------------------------------------|
 G|--------------------------------------------------------------------5-----|
 D|---5---5-4-5---5-4-3---3------------------------------------7---5---------|
 A|-----------------------------5h7p5\3---3----5p3-5/7-3---7-----------------|
 E|-------------------------------------3------------------------------------|
 e|--------------------------------------------------------------------------|
 B|--8---3/5-----------------------------------------------------------------|
 G|------------5-------------------------------------------------------------|
 D|----------------7---5---3h5-3--------3-2-3-2-3-2-3/5-5--------------------|
 A|------------------------------5/7-----------------------------------------|
 E|--------------------------------------------------------------------------|

Verse 3
[Am] I've got another [F]meeting Tom, maybe [C]we could wrap it up[G/B]
[Am] I know we'll get to [F]common ground [G]somehow[C/G] [G]
[Fdim7]Meanwhile I'll report back to my [Am]colleagues who were [Am7/G]chewing on the [D7/F#]doors
I guess we'll table this for [G]now
I'm [F]glad to see you [C]take constructive[E7] criticism [Am]well
[F]Thank you for your [C]time I know we're [E7]all busy as [Am]hell
And we'll [F]put this thing to bed
[Fm]When I bash your head.. open
Chorus 3
[C]All we [G]want to do is [F]eat your brains[G]
C G F(chorus Figure)
We're not unreasonable, I mean, no-one's gonna eat your eyes
[C]All we [G]want to do is [F]eat your brains[G]
Am Em F(chorus figure)
We're at an impasse here, maybe we should compromise:
If you [F]open [F/E]up the [Dm]doors
[F]We'll all [F/E]come in[F]side and [G]eat your [C]bra[Csus4]ins[C]
many thanks,
Gethin JH :)

Important: The song above is NOT stored on the Chordie server. The original song is hosted at www.azchords.com. Chordie works as a search engine and provides on-the-fly formatting. Chordie does not index songs against artists'/composers' will. To remove this song please click here.

Text color:
Chord color:
Chord grids: 
Font size:    
Page size: 

Ab Am Am7/G C C# C#m C/G Csus4 D7/F# Dm E7 Eb F F/E Fdim7 Fm G G/B Gdim7
Rate #2 of 6 versions

Login - add to songbook

SHARE PAGE  



You need to log in to post comments