Guitar Tabs, Chords and Lyrics
Server problems seems to be fixed. Chordie has been experiencing problems with songs disappearing. These issues now seems to be fixed, but still verifying the fix. If you find anything strange, please email admin@chordie.com.


Beautiful Girl  Jose Mari Chan

Intro: G-Bm-C
[G-Bm-C-D7sus-D7]  
 
 E|--3--------2--------0-----------|
 B|-----3--------3--------------1--|
 G|--------4--------4--------0-----|
 D|-----------------------2--------|
 A|-----------2--------3-----------|
 E|--3-----------------------------|
 E|--3--------2--------0--------------------2-----3--2--|
 B|-----3--------3--------------1--------1-----1--------|
 G|--------4--------4--------0--------2-----------------|
 D|-----------------------2--------0--------------------|
 A|-----------2--------3--------------------------------|
 E|--3--------------------------------------------------|

VERSE I
 
 E|--------------------3--------------------------------4-----------|
 B|--------0--0-----------0-----------------0--3-----------3--------|
 G|--0--2--------------------0-----0--0--2-----------4--------4-----|
 D|-----------------0-----------------------------4-----------------|
 A|--------------2-----------------------------2-----------------2--|
 E|-----------3-----------------3-----------------------------------|

Beautiful g[G]irl, wherever you [Bm]are
 
 E|-----------5--2--3-----------------|
 B|--------3--------------------0-----|
 G|--4--4--------------------0-----0--|
 D|-----------------------2-----------|
 A|--------------------2--------------|
 E|--------------0--------------------|

I knew that i [Em]saw you,
 
 E|-----3--3--3--2--0-----------2-----------|
 B|-----1--------------3-----------3--------|
 G|-----0--------------------4--------4-----|
 D|-----------------------4-----------------|
 A|--3-----------------2-----------------2--|
 E|-----------------------------------------|

[C] you had opened the d[Bm]oor
 
 E|-----------------0-----------|
 B|--------1--3--3--------------|
 G|--4--4--------------0--------|
 D|-----------------------2-----|
 A|--------------3-----------3--|
 E|-----------------------------|

I knew that i'd l[C]ove again
 
 E|--------------------------------------|
 B|--------1--0-----------0--------------|
 G|--0--2--------------0-----2--0-----0--|
 D|-----------------0--------------2-----|
 A|--------------2--------------3--------|
 E|-----------3--------------------------|

After a l[G]ong l[C]ong while
 
 E|--------0--------2-----3--2--|
 B|--------------1-----1--------|
 G|--0--2-----2-----------------|
 D|-----------0-----------------|
 A|-----------------------------|
 E|-----------------------------|

D7sus-D7hold
i'd love again
 
 E|--------------------3--------------------------------4-----------|
 B|--------0--0-----------0-----------------0--3-----------3--------|
 G|--0--2--------------------0-----0--0--2-----------4--------4-----|
 D|-----------------0-----------------------------4-----------------|
 A|--------------2-----------------------------2-----------------2--|
 E|-----------3-----------------3-----------------------------------|

You said "hel[G]lo" and i turned to [Bm]go
 
 E|-----------5--2--3-----------------|
 B|--------3--------------------0-----|
 G|--4--4--------------------0-----0--|
 D|-----------------------2-----------|
 A|--------------------2--------------|
 E|--------------0--------------------|

but something in y[Em]our eyes
 
 E|-----3--3--3--2--0-----------2-----------|
 B|-----1--------------3-----------3--------|
 G|-----0--------------------4--------4-----|
 D|-----------------------4-----------------|
 A|--3-----------------2-----------------2--|
 E|-----------------------------------------|

[C] Left my heart beating [Bm]so
 
 E|-----------------0-----------|
 B|--------1--3--3--------------|
 G|--4--4--------------0--------|
 D|-----------------------2-----|
 A|--------------3-----------3--|
 E|-----------------------------|

I just knew that i'd l[C]ove again
 
 E|--------------------------------------|
 B|--------1--0-----------0--------------|
 G|--0--2--------------0-----2--0-----0--|
 D|-----------------0--------------2-----|
 A|--------------2--------------3--------|
 E|-----------3--------------------------|

After a l[G]ong, long w[C]hile
 
 E|-----------------------------3--|
 B|-----------------------0-----0--|
 G|--0--2--0--0--------0-----0--0--|
 D|-----------------0-----------0--|
 A|--------------2--------------2--|
 E|-----------3-----------------3--|

I'd love ag[G]ain
REFRAIN:
 
 E|--3--3--3--2--0-----------2--------|
 B|-----------------3-----------3-----|
 G|-----------------------4--------4--|
 D|--------------------4--------------|
 A|-----------------2-----------------|
 E|-----------------------------------|

It was destiny's g[Bm]ame
 
 E|-----7--7--7--5--3--2--------2--2h3--2--0--------|
 B|-------------------------------------------------|
 G|--------------------------4-------------------0--|
 D|-----------------------4-------------------2-----|
 A|--3-----------------2-------------------3--------|
 E|-------------------------------------------------|

[C] When love finally c[Bm]ame [C]on
 
 E|--0--2--3-----------|
 B|-----------3--------|
 G|--------------------|
 D|-----------------0--|
 A|--------------2-----|
 E|-----------3--------|

I rushed in l[G]ine
 
 E|--------------------|
 B|--0--1--3-----------|
 G|-----------0-----0--|
 D|--------------2-----|
 A|-----------3--------|
 E|--------------------|

Only to f[C]ind
 
 E|--------0--------3-----3--2--|
 B|--------------1-----1--------|
 G|--0--2-----2-----------------|
 D|-----------0-----------------|
 A|-----------------------------|
 E|-----------------------------|

D7sus D7 hold
That you were gone.
Verse II:
 
 E|--------------------3--------------------------------4-----------|
 B|--------0--0-----------0-----------------0--3-----------3--------|
 G|--0--2--------------------0-----0--0--2-----------4--------4-----|
 D|-----------------0-----------------------------4-----------------|
 A|--------------2-----------------------------2-----------------2--|
 E|-----------3-----------------3-----------------------------------|

Wherever you a[G]re, I fear that I m[Bm]ight
 
 E|-----------5--2--3-----------------|
 B|--------3--------------------0-----|
 G|--4--4--------------------0-----0--|
 D|-----------------------2-----------|
 A|--------------------2--------------|
 E|--------------0--------------------|

Have lost you for[Em]ever
 
 E|-----3--3--3--2--0-----------2-----------|
 B|-----1--------------3-----------3--------|
 G|-----0--------------------4--------4-----|
 D|-----------------------4-----------------|
 A|--3-----------------2-----------------2--|
 E|-----------------------------------------|

[C] Like a song in the [Bm]night
 
 E|-----------------0-----------|
 B|--------1--3--3--------------|
 G|--4--4--------------0--------|
 D|-----------------------2-----|
 A|--------------3-----------3--|
 E|-----------------------------|

Now that i've l[C]ove again
 
 E|--------------------------------------|
 B|--------1--0-----------0--------------|
 G|--0--2--------------0-----2--0-----0--|
 D|-----------------0--------------2-----|
 A|--------------2--------------3--------|
 E|-----------3--------------------------|

After a l[G]ong, long w[C]hile
 
 E|-----------------------------3--|
 B|-----------------------0-----0--|
 G|--0--2--0--0--------0-----0--0--|
 D|-----------------0-----------0--|
 A|--------------2--------------2--|
 E|-----------3-----------------3--|

I've love ag[G]ain
(repeat Refrain)
 
 E|--------------------3--------------------------------4-----------|
 B|--------0--0-----------0-----------------0--3-----------3--------|
 G|--0--2--------------------0-----0--0--2-----------4--------4-----|
 D|-----------------0-----------------------------4-----------------|
 A|--------------2-----------------------------2-----------------2--|
 E|-----------3-----------------3-----------------------------------|

Beautiful g[G]irl, I'll search on for y[Bm]ou
 
 E|-----------5--2--3-----------------|
 B|--------3--------------------0-----|
 G|--4--4--------------------0-----0--|
 D|-----------------------2-----------|
 A|--------------------2--------------|
 E|--------------0--------------------|

'Till all of your lovelin[Em]ess
 
 E|-----3--3--3--2--0-----------2-----------|
 B|-----1--------------3-----------3--------|
 G|-----0--------------------4--------4-----|
 D|-----------------------4-----------------|
 A|--3-----------------2-----------------2--|
 E|-----------------------------------------|

[C] In my arms come t[Bm]rue
 
 E|-----------------0-----------|
 B|--------1--3--3--------------|
 G|--4--4--------------0--------|
 D|-----------------------2-----|
 A|--------------3-----------3--|
 E|-----------------------------|

You've made me l[C]ove again
 
 E|--------------------------------------|
 B|--------1--0-----------0--------------|
 G|--0--2--------------0-----2--0-----0--|
 D|-----------------0--------------2-----|
 A|--------------2--------------3--------|
 E|-----------3--------------------------|

After a l[G]ong, long w[C]hile
 
 E|--------0-----------2-----------|
 B|-----------3-----------3--------|
 G|--0--2-----------4--------4-----|
 D|--------------4--------------4--|
 A|-----------2--------------------|
 E|--------------------------------|

In love a[Bm]gain
 
 E|--0--0-----0--3--5-------|
 B|--1-----3----------------|
 G|--0----------------------|
 D|--2----------------------|
 A|--3----------------------|
 E|-------------------------|
 C D7----------| G-Bm-C-G-Bm-C

And i'm glad that it's you
 
 E|--3--------2--------0-----------|
 B|-----3--------3--------------1--|
 G|--------4--------4--------0-----|
 D|-----------------------2--------|
 A|-----------2--------3-----------|
 E|--3-----------------------------|
 E|--3--------2--------0-----------0--2--2--3--5--3--------------3--|
 B|----3--------3---------1-----3-----------------------------3-----|
 G|-------4--------4---------0-----------------------------4--------|
 D|-----------------------------------------------------5-----------|
 A|----------2--------3------------------------------5--------------|
 E|--3--------------------------------------------3-----------------|

D7 hold G
hmmm, beautiful girl

Important: The song above is NOT stored on the Chordie server. The original song is hosted at www.azchords.com. Chordie works as a search engine and provides on-the-fly formatting. Chordie does not index songs against artists'/composers' will. To remove this song please click here.

Text color:
Chord color:
Chord grids: 
Font size:    
Page size: 

Bm C Em G
Rate #1 of 5 versions

Jango Player

Login - add to songbook

SHARE PAGE  



You need to log in to post comments