Guitar Tabs, Chords and Lyrics
Server problems seems to be fixed. Chordie has been experiencing problems with songs disappearing. These issues now seems to be fixed, but still verifying the fix. If you find anything strange, please email admin@chordie.com.


All the Way  Journey

JOURNEY ‚?? All The Way
One of my very favourites... please do enjoy...
Intro:
 
 e-12-13-15-15---------------|-12-13-15-15-----------------|
 B---------------13---13-----|--------------13---13/15-----|
 G---------------------------|-----------------------------|
 D---------------------------|-----------------------------|
 A---------------------------|-----------------------------|
 E---------------------------|-----------------------------|

Verse 1:
I kiss you and I [F]feel you [G]pull a[C]way
It hurts me when I [F]see you [G]hesi[C]tate
Mis[Em]takes I've [F]made, wish I could [G]take them [Am]back
[C]Say it's not too [F]late to [G]hear you
Chorus:
[C]Speak your heart and I will listen
[Am7]Don't hold back we'll find what's missin'
[F]I'll take you [G]all the [C]way
[C]Close your eyes and think forever
If [Am7]you believe we [Am7/G]go together
[F]I'll take you [G]all the [C]way
Verse 2:
Sifting through the [F]memories [G]we have [C]known
Looking back at [F]places [G]we have [C]gone
[Em]Let's not leave be[F]hind what so [G]few have [Am]found
[C]Love ain't always [F]easy [G]so
Repeat Chorus
Bridge 1:
I'll take you [Am]all..[F]. the [C]way
I'll take you [F]all.[Dm].. the [G]way
[F] [Em]  
Have [E5/G#]faith in love and [Am]where it leads us
[F] I'll take you [G]all the [C]way
Guitar solo:
 
 e------------------------------------------|
 B-----13-13----15b(17)--15b(17)r(15)p13----|
 G-/14-------14--------------------------14-|
 D------------------------------------------|
 A------------------------------------------|
 E------------------------------------------|
 e------15---------15b(17)----|
 B-13------13-13--------------|
 G----------------------------|
 D----------------------------|
 A----------------------------|
 E----------------------------|
 e--solo-run-in-C-major--|
 B-----------------------|
 G---I-suggest-you-do----|
 D---your-own-thing-:)---|
 A-----------------------|
 E-----------------------|
 e-20---/22-20-20-------20-20----20---|
 B------------------/22-------22------|
 G------------------------------------|
 D------------------------------------|
 A------------------------------------|
 E------------------------------------|
 e-22b(24)--22b----20----------20-------------------|
 B--------------------22b(24)-----22b(24)r(22)-20---|
 G--------------------------------------------------|
 D--------------------------------------------------|
 A--------------------------------------------------|
 E--------------------------------------------------|
 e------------20-------------------------------|----------|
 B---17-18-20----20-18-17----------17-15-13----|----------|
 G------------------------19-17-16----------16-|-14-------|
 D---------------------------------------------|----------|
 A---------------------------------------------|----------|
 E---------------------------------------------|----------|

Bridge 2:
[Am]Whoah.[F]..[C]
[F] I'll take you [Dm]all the [G]way
Interlude:
 
 e--------------------------------------------------------------|
 B-5-5------------13-13----15b(17)---15b(17)r(15)p13------------|
 G-5-5---2----/14-------14---------------------------14-12------|
 D-5-5---3------------------------------------------------------|
 A-3-3---3------------------------------------------------------|
 E-------1------------------------------------------------------|
 e---------------------15-17----19----19b(20)r(19)-17-19-|-17-----|
 B-5-5--------------15-------15----15--------------------|--------|
 G-5-5---4----16-17--------------------------------------|--------|
 D-5-5---5-----------------------------------------------|--------|
 A-3-3---5-----------------------------------------------|--------|
 E-------3-----------------------------------------------|--------|

Bridge 3:
[Am]Whoah.[F]..[C]
[F] I'll take you [Dm]all the [G]way
[F] [Em]  
Have [E5/G#]faith in love and [Am]where it leads us
[F] I'll take you [G]all the [C]way
Outro:
 
 e-12-13-15-15---------------|-12-13-15-15-----------------|
 B---------------13---13-----|--------------13---13/15-----|
 G---------------------------|-----------------------------|
 D---------------------------|-----------------------------|
 A---------------------------|-----------------------------|
 E---------------------------|-----------------------------|

All the [C]way...
‚??funny‚?? chords:
Am7 ‚?? x02010
Am7/G - 3x2010
E5/G# - 4x245x

Important: The song above is NOT stored on the Chordie server. The original song is hosted at www.azchords.com. Chordie works as a search engine and provides on-the-fly formatting. Chordie does not index songs against artists'/composers' will. To remove this song please click here.

Text color:
Chord color:
Chord grids: 
Font size:    
Page size: 

Am Am7 Am7/G C Dm E5/G# Em F G
Rate #1 of 2 versions

Jango Player

Login - add to songbook

SHARE PAGE  




You need to log in to post comments